Song name
# A B C D E F G H I J K L M N O P Q R S T U V W X Y Z

Runaways - Secrets tab

Artist: The Runaways
Album: The Runaways
Song: Secrets


Tabbed By: Rebeca Renteria
e-mail: gumy_rebe@hotmail.com



INTRO/VERSE


e-------------------------------------|
B-------------------------------------|
G-------------------------------------| x8
D---7--7--7-7---12--12--12-12-12-12---|
A---5--5--5-5---10--10--10-10-10-10---|
E-------------------------------------|



CHORUS

e------------------------------------|
B------------------------------------|
G----------------5---7-----5-7-------|  x4
D--------7-------5---7-----5-7-------|
A--------7-------3---5-----3-5-------|
E--------5---------------------------|




INTRO/VERSE
CHORUS




BRIDGE
  
e---------------------------|
B---------------------------|
G---------------------------|  x4
D---------------------------|
A----3----4------5----------|
E--1----2----3-3------------|




e---------------------------------------|
B---------------------------------------|
G----------7-7--9-9----------------7----|  x4
D---7-7----7-7--9-9--x-x-x-x-x-x---7----|
A---7-7----5-5--7-7--x-x-x-x-x-x---5----|
E---5-5---------------------------------|




e---------------------------------|
B---------------------------------|
G---------------------------------|  x4
D---------------------------------|
A---10---8---5-5---10---8---5-----|
E---8----6---3-3---8----6---3-----|



 
    Secrets...
    Secrets...
e-------------------------------------|
B-------------------------------------|
G----------7-7--9----------------7----|  x4
D---7-7----7-7--9--x-x-x-x-x-x---7----|
A---7-7----5-5--7--x-x-x-x-x-x---5----|
E---5-5-------------------------------|



INTRO/VERSE


END




Tap to rate this tab
 
# A B C D E F G H I J K L M N O P Q R S T U V W X Y Z