Song name
# A B C D E F G H I J K L M N O P Q R S T U V W X Y Z

Runaways - I Love Playin With Fire tab

Song: I Love Playin With Fire
Artist: The Runaways
Album: Queens Of Noise
Tabbed By: Rebeca Renteria
           gumy_rebe@hotmail.com




INTRO

e-----------------------|
B-----------------------|
G---7---------9--9------|
D---7---7-----9--9------| x3
A---5---7---5/7--7------|
E-------5---------------|



e-------------------------|
B-------------------------|
G---7-------9-------7-----|
D---7---7---9-------7-----|
A---5---7---7-------5-----|
E-------5-----------------|




VERSE

e--------------------------------------------------------------------------|
B--------------------------------------------------------------------------|
G-----------------7-----------------5-----------------5--------------------|
D--9-9-9-9-9-9-9--7--9-9-9-9-9-9-9--5--7-7-7-7-7-7-7--5--9-9-9-9-9-9-9-9---| 
A--7-7-7-7-7-7-7--5--7-7-7-7-7-7-7--3--5-5-5-5-5-5-5--3--7-7-7-7-7-7-7-7---|
E--------------------------------------------------------------------------|
PM . . . . . . .     . . . . . . .     . . . . . . .     . . . . . . . .    





CHORUS

e---------------------|
B---------------------|
G---5-----7-----9-----| X4
D---5-----7-----9-----| 
A---3-----5-----7-----|
E---------------------|




INTRO
VERSE
CHORUS



(During the solo)
VERSE
CHORUS


INTRO
VERSE
CHORUS
Tap to rate this tab
# A B C D E F G H I J K L M N O P Q R S T U V W X Y Z