Song name
# A B C D E F G H I J K L M N O P Q R S T U V W X Y Z

Runaways - California Paradise tab

INTRO

e----------------------------------------------------|
B----------------------------------------------------|
G----------------------------------------------------|
D---5/7-----7-----7-----7---5/7-----7-----7-----7----|
A---5/7-7-7-7-7-7-7-7-7-7---5/7-7-7-7-7-7-7-7-7-7----|
E---3/5-5-5-5-5-5-5-5-5-5---3/5-5-5-5-5-5-5-5-5-5----|
PM      . .   . .   . .         . .   . .   . .



VERSE X2

e-------------------------------------------------------------------------------|
B-------------------------------------------------------------------------------|
G------------------------------5-----5-----5-----5------------------------------|
D--5/7-----7-----7-----7---5-5-5-5-5-5-5-5-5-3-3-5-------5-----5-----5-----5----|
A--5/7-7-7-7-7-7-7-7-7-7---3-3-3-3-3-3-3-3-3-3-3-3---5-5-5-5-5-5-5-5-5-5-5-5----|
E--3/5-5-5-5-5-5-5-5-5-5-----------------------------3-3-3-3-3-3-3-3-3-3-3-3----|
PM     . .   . .   . .     . .   . .   . .   . .     . .   . .   . .   . .



e-----------------------------|
B-----------------------------|
G-----------------------------|
D------------5----------------|
A--5-7--5-7--3---7--5-7-------|
E--3-5--3-5------5--3-5-------|





CHORUS

e----------------------------|
B----------------------------|
G---------4-----------4------|
D---3-----4-----3-----4------|
A---3-----2-----3-----2------|
E---1-----------1------------|



INTRO
VERSE
CHORUS
VERSE
CHORUS
VERSE
CHORUS



END

e------------|
B------------|
G------------|
D---5--7-----|
A---5--7-----|
E---3--5-----|
Tap to rate this tab
 
# A B C D E F G H I J K L M N O P Q R S T U V W X Y Z