Song name
# A B C D E F G H I J K L M N O P Q R S T U V W X Y Z

Runaways - California Paradise tab

Here are the tabs for California Paradise by The Runaways... I play by ear so it
may be wrong... Listen to the song for timing.

INTRO
e|-------------------------|
b|-------------------------|
g|-------------------------|    x2
d|-5/7-7-7-7-7-7-7-7-7-----|
a|-5/7-7-7-7-7-7-7-7-7-----|
E|-3/5-5-5-5-5-5-5-5-5-----|

Verse

e|-------------------------------------------------------|
b|-------------------------------------------------------|
g|----------------------5-5-5-5-5-5-5-5------------------|
d|-5/7-7-7-7-7-7-7-7-7--5-5-5-5-5-5-5-5--5-5-5-5-5-5-5-5-|
a|-5/7-7-7-7-7-7-7-7-7--3-3-3-3-3-3-3-3--5-5-5-5-5-5-5-5-|
E|-3/5-5-5-5-5-5-5-5-5-------------------3-3-3-3-3-3-3-3-|

e|-----------------------|
b|-----------------------|
g|-----------5-----------|
d|-5/77-5/77-5-7-5/77----|
a|-5/77-5/77-3-7-5/77----|
E|-3/55-3/55---5-3/55----|


Chorus

e|-----------|
b|-----------|
g|-----------|
d|-3-----/9--|
a|-3-----/9--|
E|-1-----/7--|

Outro
e|-----------------|
b|-----------------|
g|-----------------|
d|-3-----/9----5/7-|
a|-3-----/9----5/7-|
E|-1-----/7----3/5-|

During the solos play the Verse.

And That is basically the whole song... Enjoy.
Tap to rate this tab
# A B C D E F G H I J K L M N O P Q R S T U V W X Y Z