Song name
# A B C D E F G H I J K L M N O P Q R S T U V W X Y Z

Runaways - Born To Be Bad tab

SONG: Born To Be Bad
ARTIST: The Runaways
Tabbed by: gumy_rebe@hotmail.com



VERSE
(This is a very simple arpeggio)

  A            G           Bm           A
e-------------------------------------------------------|
B-------------------------------------------------------|
G-----6-----6-----4-----4-----7------7-----6-----6------|
D----7-7---7-7---5-5---5-5---9--9---9-9---7-7---7-7-----|  X2
A---7---7-7---7-5---5-5---5-9----9-9---9-7---7-7---7----|
E--5-----5-----3-----3-----7------7-----5-----5---------|



CHORUS

e----------------------------------------------|
B----------------------------------------------|
G----------------------------------------------|
D---7----7-7--6----6-6--5----5-5-5--2-5-6------| X2
A---7----7-7--6----6-6--5----5-5-5--2-5-6------|
E---5----5-5--4----4-4--3----3-3-3--0-3-4------|



VERSE
CHORUS


BRIDGE
(This part is very simple, just follow the rhyme)


e----------------------|
B----------------------|
G----------------------|
D---7-----5-----9------| 
A---7-----5-----9------|
E---5-----3-----7------|



VERSE
CHORUS
Tap to rate this tab
# A B C D E F G H I J K L M N O P Q R S T U V W X Y Z