Song name
# A B C D E F G H I J K L M N O P Q R S T U V W X Y Z

Runaways - Dead End Justice tab

(This is only the first half of the song. I'm still working on the second part.)


Intro
e|------------------------|
B|------------------------|
G|------------------------|
D|------------------------|   x4
A|-2-2-2-2-2-2------------|
E|-0-0-0-0-0-0---2--------|

VERSE- "I'm a blond bomb shell, and I wear it well..."

e|-----------------------|
B|-----------------------|
G|-----------------------|
D|-----------------------|  x8(eighth time, drop the last note.)
A|-2-2-2-2-2-2-----------|
E|-0-0-0-0-0-0---2-------|

CHORUS - "Dead end kids in the danger zone..."

e|-------------------------------------------------------------|
B|-------------------------------------------------------------|
G|-------------------------------------------------------------|  x2
D|-4-----2-----------------------------------------------------|
A|-2-----0-------2-2-2-2-2-2--------2-2-2-2-2-2----------------|
E|---------------0-0-0-0-0-0--2-----0-0-0-0-0-0--2-------------|

VERSE - "Long, hard summers make me wanna fight..."

CHORUS

SOLO

VERSE- "Got away clean with my fake ID..."

CHORUS

'MELTDOWN' - "In the naked city, spaces ain't that pretty..."

e|-----------------|      |----------|
B|-----------------|      |----------|
G|-----------------|      |----------|
D|-----------------|  x4  |----------| x15
A|-2-2-2-2-2-2-----|      |-2--------|
E|-0-0-0-0-0-0---2-|      |-0----2---|

(most notes are going to be short or staccato. Like with most tabs, if you've heard the 
you know how it's supposed to go.)
Tap to rate this tab
 
# A B C D E F G H I J K L M N O P Q R S T U V W X Y Z