Song name
# A B C D E F G H I J K L M N O P Q R S T U V W X Y Z

Runaways - Dead End Justice tab

(This is only the first half of the song. The part after the big meltdown, I'm 
still working on. Most of the song will be palm muted.)

Intro
e|-------------------------|
B|-------------------------|
G|-------------------------|
D|-------------------------| x4
A|--2-2-2-2-2-2------------|
E|--0-0-0-0-0-0---3--------|

VERSE- "I'm a blond bomb shell, and I wear it well..."

e|-------------------------|
B|-------------------------|
G|-------------------------|
D|-------------------------|  x8  
A|--2-2-2-2-2-2------------|
E|--0-0-0-0-0-0---3--------|
                   ^
(eighth time,drop this note.)

CHORUS - "Dead end kids in the danger zone..."

e|------------------------------------------------------------|
B|------------------------------------------------------------|
G|------------------------------------------------------------| x2
D|--4-----2---------------------------------------------------|
A|--2-----0-----2-2-2-2-2-2--------2-2-2-2-2-2----------------|
E|--------------0-0-0-0-0-0--3----0-0-0-0-0-0--3--------------|

VERSE - "Long, hard summers make me wanna fight..."

CHORUS

SOLO

VERSE- "Got away clean with my fake ID..."

CHORUS

'MELTDOWN' - "In the naked city, spaces ain't that pretty..."

e|---------------------------|           
B|---------------------------|            
G|---------------------------|            
D|---------------------------| x4     
A|--2-2-2-2-2-2--------------|           
E|--0-0-0-0-0-0---3----------|         

e|--------------------------------------------|
B|--------------------------------------------|
G|--------------------------------------------| x5
D|---2-----------2-----------2----------------|
A|---0-------3---0------3---0--------3--------|
E|--------------------------------------------|
Tap to rate this tab
 
# A B C D E F G H I J K L M N O P Q R S T U V W X Y Z