Song name
# A B C D E F G H I J K L M N O P Q R S T U V W X Y Z

Runaways - Cherry Bomb tab

First tab :)
The Runaways are my absolute favorite band ever! So why not tab their most famous song's 
Solo preformed by Lita Ford.

EADGBe

|---------------------------------------------------------------------------|
|---16-16b---15h16p15-------------------------------------------------------|
|-------------------------16p-14----14-h16b----------------7--9--9b--7-9b---|
|--------------------------------16-------------------7/9-------------------|
|---------------------------------------------------------------------------|
|---------------------------------------------------------------------------|


----------------------------------------------------------------------------|
--------------------------------------------------------------14--15--15b---|
---7h9p7-----6h7p6--------------9/16b------14--14--16b----16----------------|
----------------------9p-7---7----------16----------------------------------|
---------------------------9------------------------------------------------|
----------------------------------------------------------------------------|

----------------------------------------------------------------------------|
----14h15p14----------------------------------------------------------------|
---------------16p-14-----14h16---------------------------------------------|
-----------------------16---------------------------------------------------|
----------------------------------------------------------------------------|
----------------------------------------------------------------------------|
Tap to rate this tab
 
# A B C D E F G H I J K L M N O P Q R S T U V W X Y Z