Runaways - I Wanna Be Where The Boys Are tab

The Runaways: I Wanna Be Where The Boys Are [LIVE IN JAPAN]
Tabbed by: kkelly13

I will not provide the strumming. It's not too difficult. Just listen to the song while 
practicing and the strumming should come easliy.
The chords are from Joan's rhythm. Lita's rhythm is different, and is not provided.

EADGBe

Intro:
(The [.]'s show the parts of strumming. The same chord is played many times.)

|---------------------|
|---------------------|
|-------7-------------|
|---7...7----7...5/7--|  (x4)
|---7...5----7...5/7--|
|---5...-----5...3/5--|

Verse 1:

Wild in the streets, bearly alive....


|---------------------|
|---------------------|
|-------7-------------|
|---7...7----7...5/7--|
|---7...5----7...5/7--|
|---5...-----5...3/5--|


Chorus:
I wanna be where the boys are... (again, strumming is not shown below, just the chord)

|-----------------|
|-----------------|
|---7--5--4-4--5--|     (x3)
|---7--5--454--5--|
|---5--3--252--3--|
|----------3------|


Verse 2:

Hot love here, I got the drive...
|---------------------|
|---------------------|
|-------7-------------|
|---7...7----7...5/7--|
|---7...5----7...5/7--|
|---5...-----5...3/5--|

Chorus:
I wanna be where the boys are...
|-----------------|
|-----------------|
|---7--5--4-4--5--|     (x3)
|---7--5--454--5--|
|---5--3--252--3--|
|----------3------|

Solo:


|---------------------------------------------------------------------------|
|---------------------------------------------------------------------------|
|---9-9--12--13~13~---17-17-17-15~------9-9--12--13~13~---17-17-17-15~------|
|---------------------------------------------------------------------------|
|---------------------------------------------------------------------------|
|---------------------------------------------------------------------------|

|-----------------------------------|
|-----------------------------------|
|--7--7-7--5--5-5--44-4-4-4h5p4h5p4-|    (x3)
|--------------------5--------------|
|-----------------------------------|
|-----------------------------------|

|-----------------------------------|
|-------------------9h11-11~~-------|
|--7--7-7--5--5-5-------------------|
|-----------------------------------|
|-----------------------------------|
|-----------------------------------|

Tabbed by: kkelly13
Tap to rate this tab
 
# A B C D E F G H I J K L M N O P Q R S T U V W X Y Z