Runaways - Wild Thing tab

Alright , here we go. This Runaways cover of Wild Thing. Its my first tabs and its not 
perfect so please be nice.. :)

Listen to the song and i think you can get it right . Good luck

Intro : Drums

" Ready, like this" - Cherrie
e------------------------------------------------------|
B------------------------------------------------------|
G------------------------------------------------------|
A--5-7------------5-7---------5-7----------5-7---------|
D--5-7------------5-7---------5-7----------5-7---------|
E--3-5------------3-5---------3-5----------3-5---------|


"Here we go"


e------------------------------------------------------------------|
B------------------------------------------------------------------|
G-------7-7-9-9-7-7------------------------------------------------|
A--7-7--7-7-9-9-7-7-----X7-----------------------------------------|
D--7-7--5-5-7-7-5-5------------------------------------------------|
E--5-5-------------------------------------------------------------|

the last time you play sommething like this
e--------------------------------------------------------------------|
B--------------------------------------------------------------------|
G-------7-7-9-9------------------------------------------------------|
A--7-7--7-7-9-9-7-7~-------------------------------------------------|
D--7-7--5-5-7-7-7-7~-------------------------------------------------|
E--5-5----------5-5~-------------------------------------------------|

"Wild thing, I think I love you...."- Sandy (Listen to the song)

e-------------------------------------------------------------------|
B-------------------------------------------------------------------|
G-------------------------------------------------------------------|
A--5-7-5-7~---------------------------------------------------------|
D--5-7-5-7~--x3-----------------------------------------------------|
E--3-5-3-5~---------------------------------------------------------|

Thats pretty much the whole song. Its goes like that round and round.

Help "Tell the Hall of Fame you want The Runaways!"
Sign the petition and help make your voice heard:
 http://www.my-cause.com/tell_the_hall_of_fame_you_want_the_runaways

R.I.P Sandy West<3
Tap to rate this tab
 
# A B C D E F G H I J K L M N O P Q R S T U V W X Y Z