Song name
# A B C D E F G H I J K L M N O P Q R S T U V W X Y Z

Runaways - Cmon tab

Intro to the LIVE IN JAPAN VERSION! Love it! The encore song :)
Lita's intro that I learned by ear.


EADGBe


|--------------------------------------------------|
|--10----12-10-------------------------------------|
|---------------12--11-----------------------------|
|----------------------12-12--14---------16--------|
|---------------------------------12-12------17-17-|
|--------------------------------------------------|

|--------------------------------------------|
|--10----12-10-------------------------------|
|---------------12--11-----------------------|
|----------------------12-12--14---------10b-|
|---------------------------------12-12------|
|--------------------------------------------|
Tap to rate this tab
 
# A B C D E F G H I J K L M N O P Q R S T U V W X Y Z