Song name
# A B C D E F G H I J K L M N O P Q R S T U V W X Y Z

Runaways - Dont Go Away tab

|--------------------------------------------------|
|--------------------------------------------------|
|-6-6-6-6-----6-6-4-----------------4--------------|
|-6-6-6-6-----6-6-4---7-7-7-7---7-7-4--------------|
|-4-4-4-4-----4-4-2---7-7-7-7---7-7-2--------------|
|---------------------5-5-5-5---5-5----------------|

|--------------------------------------------------|
|--------------------------------------------------|
|-6-6-6-6-----6-6-4---------------4----------------|
|-6-6-6-6-----6-6-4---7-7-7-7-7-7-4----------------|
|-4-4-4-4-----4-4-2---7-7-7-7-7-7-2----------------|
|---------------------5-5-5-5-5-5------------------|

Tap to rate this tab
 
# A B C D E F G H I J K L M N O P Q R S T U V W X Y Z