Song name
# A B C D E F G H I J K L M N O P Q R S T U V W X Y Z

Runaways - Neon Angels On The Road To Ruin tab

INTRO:   (follow staves as numbered)

 E -----------------|-----------------|-----------------|-----------------|
 B -----------------|-----------------|-----------------|-----------------|
 G -----------------|-----------------|-----------------|-----------------|
 D -------------2~--|-----------------|-------------2---|-----------------|
 A -----------------|-----------------|-----------------|-----------------|
 E -0---0-0-3h4-----|---3-2-0-2h3-2h3-|-0---0-0-3h4-----|-----------------|
1.  .   .   .   .     .   .   .   .     .   .   .   .     .   .   .   .
4.                     pm----|

 E -----------------|-----------------|-----------------|-----------------|
 B -----------------|-----------------|-----------------|-----------------|
 G -----------------|-----------------|-----------------|-----------------|
 D -------------2~--|-----------------|-------------2~--|-----------------|
 A -----------------|-----------------|-----------------|-----------------|
 E -0---0-0-3h4-----|---3-2-0-2h3-2h3-|-0---0-0-3h4-----|---3-2-0-3-4-4-5-|
2.                     pm----|                             pm------------|
3.


1ST VERSE:   (follow staves as numbered)

    E
 E -------------------------|-------------------------|
 B -------------------------|-------------------------|
 G -------1---1-------1---1-|-------1---1-------1---1-|
 D -2---2-2---2-2---2-2---2-|-2---2-2---2-2---2-2---2-|
 A -2---2-2---2-2---2-2---2-|-2---2-2---2-2---2-2---2-|
 E -0---0-0---0-0---0-0---0-|-0---0-0---0-0---0-0---0-|
   pm---       -----     -------     -----        ---|
    1 & a 2 & a 3 & a 4 & a
1.              No    one     here              gets
3.              Pushing       power             in
5.              Cobra         kings,
7.              Love the devil                  that's 
8.  in          your smile


    E                                     D5    A5
 E -------------------------|-------------------------|
 B -------------------------|-------------------------|
 G -------1---1-------1---1-|-------1---1-7-----------|
 D -2---2-2---2-2---2-2---2-|-2---2-2---2-7-----7-----|
 A -2---2-2---2-2---2-2---2-|-2---2-2---2-5-----7-----|
 E -0---0-0---0-0---0-0---0-|-0---0-0---0-------5-----|
   pm---       -----     -------     ----| 
2.  out         a  -  live
4.  o   -   -   ver - drive
6.        wet   and   wild


CHORUS:

    A5                        B5              E5
 E -------------------------|-------------------------|
 B -------------------------|-------------------------|
 G -------------------------|-----------------9-------|   3x
 D -------------------------|-----------------9-------|   
 A -7---7-9---7-7---7-9---7-|-9---9-11--9-----7-------|
 E -5---5-5---5-5---5-5---5-|-7---7--7--7-------------|
    1 & a 2 & a 3 & a 4 & a | 1 & a 2 & a 3 & a 4 & a |
1.        Let me tell you what we been doing
2.  Ne -  on    angels on the road  to  ruin
3.        Let me tell you what we been doing


    A5                        B5
 E -------------------------|-------------------------|
 B -------------------------|-------------------------|
 G -------------------------|-------------------------|
 D -------------------------|-9-=---------------------|
 A -7---7-9---7-7---7-9---7-|-9-=--------------/12\---|
 E -5---5-5---5-5---5-5---5-|-7-=---------------------|
    Ne -  on    angels on the road              to


    E                                     D5    A5
 E -------------------------|-------------------------|
 B -------------------------|-------------------------|
 G -------1---1-------1---1-|-------1---1-7-----------|   2x
 D -2---2-2---2-2---2-2---2-|-2---2-2---2-7-----7-----|
 A -2---2-2---2-2---2-2---2-|-2---2-2---2-5-----7-----|
 E -0---0-0---0-0---0-0---0-|-0---0-0---0-------5-----|
   pm---       -----     -------     ----| 
    ruin


2ND VERSE:   (played same as final 8 bars of 1st Verse)

Everybody who's ever on fire
Now's the time for our desire


Play CHORUS


GUITAR SOLO:

    E5                                         g             g
 E ---------------------|---------15^w---15p12-12h15p12------------------|
 B -15^w--15^wr=^w------|-15p12------------------------15p12-12h15p12--12|
 G ---------------------|------14------------------------------------14--|
 D ---------------------|------------------------------------------------|
 A ---------------------|------------------------------------------------|
 E ---------------------|------------------------------------------------|
    .     .      .   .    .       .      .                   .

    E5                                                       D5 A5
 E -------------------------------------|-------------------------|
 B -15p12-------------------------------|-------------------------|
 G ------14-/14p12---12h14p12-----------|-------------------------|
 D ---------------14---------14-/14p12--|-12-----12--12tr14-------|
 A -----------------------------------14|-----14------------------|
 E -------------------------------------|--------------------12\--|
    .         .      .           .        .      .        .  .

    E5
 E -------------------------|-----0---------------------------|
 B -------------------------|---------------------------------|
 G -2^w---2^w---2^w=r-0---2-|-2^w---4p2p0-0--4p2p0-0--4p2p0-0-|
 D -------------------------|------------2--------2--------2--|
 A -------------------------|---------------------------------|
 E -------------------------|---------------------------------|
    .     .     .     .       .     .        .        .

    E5                                                  D5     A5
 E ------------------------------------|-----------------------------|
 B ------------------------------------|-----------------------------|
 G -4p2p0-0--4p2p0-0--4p2p0-0--4p2p0-0-|-4p2p0--0---2--/16\---/16\---|
 D ------2--------2--------2--------2--|------2----------------------|
 A ------------------------------------|-----------------------------|
 E ------------------------------------|-----------------------------|
    .        .        .        .         .      .       .      .

    E5
 E -------12-------------------------|--------------------------15^w--15-|
 B ----------15^w--15^w---[17]r15-12-|-10=/12-15-15^w--15^w---12---------|
 G --------------------hb------------|-----------------------------------|
 D ----------------------------------|-----------------------------------|
 A ----------------------------------|-----------------------------------|
 E ----------------------------------|-----------------------------------|
    .        .         .   .           .         .         .     .
   E5
   g          g                  g                              D5    A5
 E 12h15p12--------------------------------|-----------------------------|
 B --------15-12h15p12---15p12-------------|-----------------------------|
 G -------------------14------14-12h14p12--|-14p12---12h14p12---12~--/16\|
 D --------------------------------------14|------14---------14----------|
 A ----------------------------------------|-----------------------------|
 E ----------------------------------------|-----------------------------|
      .          .       .          .         .       .          .     .

1.  E5
2.  E5                                                D5      A5
 E ---------------------------------|---------------------------------|
 B -3p0-0-0-4p0-0-0-5p0-0-0-6p0-0-0-|-3p0-0-0-4p0-0-0-5p0-0-0-6p0-0-0-|
 G ---------------------------------|---------------------------------|
 D ---------------------------------|---------------------------------| 2x
 A ---------------------------------|---------------------------------|
 E ---------------------------------|---------------------------------|
    .       .       .       .         .       .       .       .

    A5
 E ---------------------------------|---------------------------------|
 B ---------------------------------|---------------------------------|
 G -5p2---2-5p2---2-5p2---2-5p2---2-|-5p2---2-5p2---2-5p2---2-5p2---2-|
 D -----5-------5-------5-------5---|-----5-------5-------5-------5---|
 A ---------------------------------|---------------------------------|
 E ---------------------------------|---------------------------------|
    .       .       .       .         .       .       .       .

    A5                                         G5    D5
 E --------------------8------|-----8-------------------|
 B ---------10---8^w------8^w-|=------8^w--8^w-8^w=r-5--|
 G -5/7/9------9--------------|-------------------------|
 D ---------------------------|-------------------------|
 A ---------------------------|-------------------------|
 E ---------------------------|-------------------------|
    .     .      .     .        .     .        .     .

    A5
 E -------------------------|-------------------------|
 B -------------------------|-------------------------|
 G -------------------------|-------2---2-5p4-2-5p4-2-|
 D -------------------2---2-|-5p2h5---5---------------|
 A -------3---3-5p3h5---5---|-------------------------|
 E -5p3h5---5---------------|-------------------------|
    .     .     .     .       .     .     .     .

    A5                                      G5     D5
 E ---------------------------|-------------------------|
 B ---------------------------|-------------------------|
 G -5p4-2-5p4-2-5p4-2p0-2-2h3-|-2-----2-----------------|
 D ---------------------------|-----5-----5~-=--=-/14---|
 A ---------------------------|-------------------------|
 E ---------------------------|-------------------------|
    .     .     .       .       .     .     .      .

    E                                     D5    A5
 E -------------------------|-------------------------|
 B -------------------------|-------------------------|
 G -------1---1-------1---1-|-------1---1-7-----------|   4x
 D -2---2-2---2-2---2-2---2-|-2---2-2---2-7-----7-----|
 A -2---2-2---2-2---2-2---2-|-2---2-2---2-5-----7-----|
 E -0---0-0---0-0---0-0---0-|-0---0-0---0-------5-----|
   pm---       -----     -------     ----|


3RD VERSE:   (played same as 1st Verse)

Highway's hard in this modern world
Battered boys and shattered girls
Leather bombers that rule the streets
Setting fires and living heat


Play CHORUS


Play INTRO


-----------------------------------------------------------------------------
Notes:

-In the Intro, bar lines indicate measures of 4/4 time. For the rest of the
 song, bar lines indicate measures of 12/8 time.
-Dots (...) located under any staff are for timing, and indicate where the
 downbeats (1234) fall. (I've put some full timing lines in in a few spots.)
-Some of the notes in the solo are so short in duration that they're 
 essentially grace notes. I've indicated such notes by putting a "g" above
 the staff over these notes.

^...bend (w=whole tone)                 ~...vibrato
hb..hold bend                           =...hold note
r...release bend                        g...grace note
h...hammer on                           tr..trill
p...pull off                            /...slide up
pm..palm mute                           \...slide down
Tap to rate this tab
# A B C D E F G H I J K L M N O P Q R S T U V W X Y Z