Song name
# A B C D E F G H I J K L M N O P Q R S T U V W X Y Z

Runaways - Rock And Roll tab

7/b means to bend the A string on the 7th Fret



Intro:

e------------------------------------------------------|
B------------------------------------------------------|
G------------------------------------------------------|
D---0-2-4--(D)----------------------------0-2-4--(D)---|  2x
A---------------3-5-7--(C)--------5-7/b----------------|
E--------------------------3-5-7-----------------------|


Verse:

e-------------------------------------|
B-------------------------------------|
G----7-7-----5-5-------------7-7------|  x4
D----7-7-----5-5-----5-5-----7-7------|
A----5-5-----3-3-----5-5-----5-5------|
E--------------------3-3--------------|




Pre-Chorus:

e--------------------------------|
B--------------------------------|
G---9----------------------------|  
D---9-----5-----7-----5----------|
A---7-----5-----7-----5----------|
E---------3-----5-----3----------|




Chorus:

e-----------------------|
B-----------------------|
G-----7-7---------------|  x4
D-----7-7-----5-5-------|
A-----5-5-----5-5-------|
E-------------3-3-------|



Intro again:

e------------------------------------------------------|
B------------------------------------------------------|
G------------------------------------------------------|
D---0-2-4--(D)----------------------------0-2-4--(D)---|  2x
A---------------3-5-7--(C)--------5-7/b----------------|
E--------------------------3-5-7-----------------------|


Verse:

e-------------------------------------|
B-------------------------------------|
G----7-7-----5-5-------------7-7------|  x4
D----7-7-----5-5-----5-5-----7-7------|
A----5-5-----3-3-----5-5-----5-5------|
E--------------------3-3--------------|


Pre-Chorus:

e--------------------------------|
B--------------------------------|
G---9----------------------------|  
D---9-----5-----7-----5----------|
A---7-----5-----7-----5----------|
E---------3-----5-----3----------|


Chorus:

e-----------------------|
B-----------------------|
G-----7-7---------------|  x4
D-----7-7-----5-5-------|
A-----5-5-----5-5-------|
E-------------3-3-------|



Bridge:
e---------------------|
B---------------------|
G----7-7-----7-7------|  x4
D----7-7-----7-7------|
A----5-5-----5-5------|
E---------------------|


Intro again:

e------------------------------------------------------|
B------------------------------------------------------|
G------------------------------------------------------|
D---0-2-4--(D)----------------------------0-2-4--(D)---|  2x
A---------------3-5-7--(C)--------5-7/b----------------|
E--------------------------3-5-7-----------------------|


Pre-Chorus:

e--------------------------------|
B--------------------------------|
G---9----------------------------|  
D---9-----5-----7-----5----------|
A---7-----5-----7-----5----------|
E---------3-----5-----3----------|


Chorus:

e-----------------------|
B-----------------------|
G-----7-7---------------|  x4
D-----7-7-----5-5-------|
A-----5-5-----5-5-------|
E-------------3-3-------|

End:

e----------|
B----------|
G-----7-7--|
D-----7-7--| 1x
A-----5-5--|
E----------|
Tap to rate this tab
# A B C D E F G H I J K L M N O P Q R S T U V W X Y Z