Song name
# A B C D E F G H I J K L M N O P Q R S T U V W X Y Z

Runaways - Cmon tab

-----------------------------------------------------------------------------
                            C'mon - The Runaways
-----------------------------------------------------------------------------
This is the intro for the live version of the song. Better listen to the song before 
playing so you could catch the rhythm. Hope you like it :)

Tuning: Standard


e|-----------------------------------------------------|
B|-----12----------------------------------------------|
G|-14------14---12--11----------------------11---------|
D|----------------------12--12--14--------------12-----|
A|---------------------------------12--12--------------|
E|-----------------------------------------------------|


e|-----------------------------------------------------|
B|-----12----------------------------------------------|
G|-14------14---12--11---------------------------------|
D|----------------------12--12--14---------------------|
A|---------------------------------12--12--12b---------|
E|-----------------------------------------------------|



************************************

| /   slide up
| \   slide down
| h   hammer-on
| p   pull-off
| ~   vibrato
| +   harmonic
| x   Mute note
| b   Bend
| pb  Pre-bend
| br  Bend release
| pbr Pre-bend release
| brb Bend release bend

************************************
Tap to rate this tab
# A B C D E F G H I J K L M N O P Q R S T U V W X Y Z