Song name
# A B C D E F G H I J K L M N O P Q R S T U V W X Y Z

Runga Bic - Drive tab

(Singing and starts right away)

VERSE
    Dm7          C              Bbm7             C 
E|-------1-------------0----------------1-------------0------|
B|-----1---1---------1---1------------3---3---------1---1----|
G|---2-------2-----0-------0-------2--------2-----0-------0--| x 4
D|-0---------------------------------------------------------|
A|---------------3---------------1---------------3-----------|
E|-----------------------------------------------------------|

CHORUS:
   Bbm7           C                         Dm7
E|-------1--------------0---1-----0---------1------------1----------|
B|-----3---3----------1-------1-----------1---1------------1--------|
G|---2-------2------0-----------0-------2-------2------------2------|
D|------------------------------------0--------------0--------------|
A|-1--------------3----------------------------------------------0--|quickly switch to Bbm7
E|------------------------------------------------------------------|

   Bbm7           C                Dm7            C             Bbm7
E|-------1--------------0---------------1---------------0-------------1------|
B|-----3---3----------1---1-----------1---1-----------1---1---------1---1----|
G|---2-------2------0-------0--------2------2-------0-------0-----2-------2--|
D|---------------------------------0-----------------------------------------|
A|-1--------------3-------------------------------3-------------1------------|
E|---------------------------------------------------------------------------|


   C                Dm7            C              Bbm7             C
E|--------0----------------1---------------0--------------1--------------0-----|
B|------1---1------------1---1-----------1---1----------3---3----------1---1---|
G|----0-------0--------2-------2-------0-------0------2-------2------0-------0-|
D|------------------0----------------------------------------------------------|
A|--3-------------------------------3--------------1---------------3-----------|
E|-----------------------------------------------------------------------------|

VERSE

CHORUS

LAST CHORUS:
   Bbm7           C                         Dm7
E|-------1--------------0---1-----0---------1------------1----------|
B|-----3---3----------1-------1-----------1---1------------1--------|
G|---2-------2------0-----------0-------2-------2------------2------|
D|------------------------------------0--------------0--------------|
A|-1--------------3----------------------------------------------0--|quickly switch to Bbm7
E|------------------------------------------------------------------|

   Bbm7           C                Dm7            C             Bbm7 rit.
E|-------1--------------0---------------1---------------0-------------1-----|
B|-----3---3----------1---1-----------1---1-----------1---1---------1-------|
G|---2-------2------0-------0--------2------2-------0-------0-----2---------|
D|---------------------------------0----------------------------------------|
A|-1--------------3-------------------------------3-------------1-----------|
E|--------------------------------------------------------------------------|

Tap to rate this tab
 
# A B C D E F G H I J K L M N O P Q R S T U V W X Y Z