Guitaretab - guitar tabs
Song name
# A B C D E F G H I J K L M N O P Q R S T U V W X Y Z

Runner Runner - So Obvious tab

-------------------------------------------------------------------------------
			     So Obvious - Runner Runner
-------------------------------------------------------------------------------
Tabbed by: Adam
http://www.myspace.com/runnerrunnermusic
http://modlife.com/runnerrunner
Tuning:standard
 lead intro. chords are rythym.  use this as the lead in the chorus too.
e|--------------------------------------------------------------------------|
B|55-44-55--------55-44-55---------77777777-44444444------------------------|
G|---------44--------------44-----------------------------------------------|
D|--------------------------------------------------------------------------|
A|--------------------------------------------------------------------------|
E|--------------------------------------------------------------------------|
 JUST REPEAT THESE CHORDS ALL SONG! even the bridge. just change strum pattern.
e|--------------------------------------------------------------------------|
B|--------------------------------------------------------------------------|
G|------9-------------------------------------------------------------------|
D|-7----9----9--------------------------------------------------------------|
A|-7----7----9--------------------------------------------------------------|
E|-5---------7--------------------------------------------------------------|
[ Tab from: http://www.guitaretab.com/r/runner-runner/175322.html ]
Related for So Obvious tab