Song name
# A B C D E F G H I J K L M N O P Q R S T U V W X Y Z

Runner Runner - So Obvious Acoustic tab

Questions: ticklemeivan@yahoo.com
Tuning: Standard
Did not finish!
More to come soon!

Intro: 
e|--------0--------0--------0-----------------------------------------------|
B|--------5--------0--------0-----------------------------------------------|
G|--------6--------2--------4-----------------------------------------------|
D|--------6--------2--------4-----------------------------------------------|
A|--------4--------0--------2-----------------------------------------------|
E|--------0--------0--------0-----------------------------------------------|


Verse:
e|--------0---------------0-----------------0-------------------------------|
B|--------0---------------0-----------------0-------------------------------|
G|--------2---------------1-----------------4-------------------------------|
D|--------2----2--2--2----2----2--2--2------4----4--4--4--4--4--4--4--------|
A|--------0--0--0--0------2--2--2--2--------2--2--2--2--2--2--2--2----------|
E|--------0---------------0-----------------0-------------------------------|

Chorus:
e|--------0--------0--------0-----------------------------------------------|
B|--------5--------0--------0-----------------------------------------------|
G|--------6--------2--------4-----------------------------------------------|
D|--------6--------2--------4-----------------------------------------------|
A|--------4--------0--------2-----------------------------------------------|
E|--------0--------0--------0-----------------------------------------------|

e|--------0--------0--------0-----------------------------------------------|
B|--------0--------0--------0-----------------------------------------------|
G|--------2--------6--------4-----------------------------------------------|
D|--------2--------6--------4-----------------------------------------------|
A|--------0--------4--------2-----------------------------------------------|
E|--------0--------0--------0-----------------------------------------------|
Tap to rate this tab
# A B C D E F G H I J K L M N O P Q R S T U V W X Y Z