Song name
# A B C D E F G H I J K L M N O P Q R S T U V W X Y Z

Runner Runner - I Cant Wait tab

-----------------------------------------------------------------------------
                             I Cant Wait - Runner Runner
-----------------------------------------------------------------------------
Tabbed by: rockerkyle13
Email: rockerkyle13@yahoo.com

        hey guys! Its been a while since Iíve made a tab, and I noticed that 
nobody has tabbed this song yet, so I thought I would be the first! I have been 
hearing this song at work for months and i was never able to find out who it was 
until yesterday. so i went home, learned it, and tabbed it out for you guys! if 
you guys have any comments or suggestions, feel free to email me. Thanks, hope you enjoy it!
Tuning: Eb Standard: Eb Ab Db Gb Bb Eb

Intro:
eb|---------|
Bb|---------|
Gb|-------0-|
Db|----4----|
Ab|-5-------|
Eb|---------|

eb|-3-------3-----3-3-3-3---3---3-3-3-------3-----3-3-3-3---3---3-3-|
Bb|-3-------3-----3-3-3-3---3---3-3-3-------3-----3-3-3-3---3---3-3-|
Gb|-0-------0-----0-0-0-0---0---0-0-2-------2-----2-2-2-2---2---2-2-|
Db|-0-------0-----0-0-0-0---0---0-0-0-------0-----0-0-0-0---0---0-0-|
Ab|-x-------x-----x-x-x-x---x---x-x-0-------0-----0-0-0-0---0---0-0-|
Eb|-3-------3-----3-3-3-3---3---3-3-2-------2-----2-2-2-2---2---2-2-|

eb|-3-------3-----3-3-3-3---3---3-3-3-------3-----3-3-3-3---3---3-3-|
Bb|-3-------3-----3-3-3-3---3---3-3-3-------3-----3-3-3-3---3---3-3-|
Gb|-0-------0-----0-0-0-0---0---0-0-0-------0-----0-0-0-0---0---0-0-|
Db|-2-------2-----2-2-2-2---2---2-2-2-------2-----2-2-2-2---2---2-2-|
Ab|-2-------2-----2-2-2-2---2---2-2-3-------3-----3-3-3-3---3---3-3-|
Eb|-0-------0-----0-0-0-0---0---0-0---------------------------------|
Verse 1:
eb|-3-------------------------------3-------------------------------|\
Bb|-3-------------------------------3-------------------------------| \
Gb|-0-------------------------------2-------------------------------|  \
Db|-0-------------------------------0-------------------------------|   \
Ab|-x-------------------------------0-------------------------------|    \
Eb|-3-------------------------------2-------------------------------|     \
                                                                          x2
eb|-3-------------------------------3-------------------------------|     /
Bb|-3-------------------------------3-------------------------------|    /
Gb|-0-------------------------------0---------------------------0---|   /
Db|-2-------------------------------2-----------------------4-------|  /
Ab|-2-------------------------------3-------------------5-----------| /
Eb|-0---------------------------------------------------------------|/

eb|---------0-----0-0-0-0---0-0-0-0---------3-----3-3-3-3---3-3-3-3-|
Bb|---------1-----1-1-1-1---1-1-1-1---------3-----3-3-3-3---3-3-3-3-|
Gb|---------0-----0-0-0-0---0-0-0-0---------0-----0-0-0-0---2-2-2-2-|
Db|-2-------2-----2-2-2-2---2-2-2-2-2-------2-----2-2-2-2---0-0-0-0-|
Ab|-0-------0-----0-0-0-0---0-0-0-0-3-------3-----3-3-3-3---0-0-0-0-|
Eb|---------------------------------------------------------2-2-2-2-|
Chorus:
eb|-3-------3-----3-3-3-3---3---3-3-3-------3-----3-3-3-3---3---3-3-|\
Bb|-3-------3-----3-3-3-3---3---3-3-3-------3-----3-3-3-3---3---3-3-| \
Gb|-0-------0-----0-0-0-0---0---0-0-2-------2-----2-2-2-2---2---2-2-|  \
Db|-0-------0-----0-0-0-0---0---0-0-0-------0-----0-0-0-0---0---0-0-|   \
Ab|-x-------x-----x-x-x-x---x---x-x-0-------0-----0-0-0-0---0---0-0-|    \
Eb|-3-------3-----3-3-3-3---3---3-3-2-------2-----2-2-2-2---2---2-2-|     \
                                                                          x2
eb|-3-------3-----3-3-3-3---3---3-3-3-------3-----3-3-3-3---3---3-3-|     /
Bb|-3-------3-----3-3-3-3---3---3-3-3-------3-----3-3-3-3---3---3-3-|    /
Gb|-0-------0-----0-0-0-0---0---0-0-0-------0-----0-0-0-0---0---0-0-|   /
Db|-2-------2-----2-2-2-2---2---2-2-2-------2-----2-2-2-2---2---2-2-|  /
Ab|-2-------2-----2-2-2-2---2---2-2-3-------3-----3-3-3-3---3---3-3-| /
Eb|-0-------0-----0-0-0-0---0---0-0---------------------------------|/

eb|-3-------3---3-------3---3---------------------------------------|
Bb|-3-------3---3-------3---3---------------------------------------|
Gb|-0-------0---2-------2---0---------------------------------------|
Db|-2-------2---0-------0---2---------------------------------------|
Ab|-2-------2---0-------0---3---------------------------------------|
Eb|-0-------0---3-------3-------------------------------------------|
Verse 2:
eb|-3-------3-----3-3-3-3---3---3-3-3-------3-----3-3-3-3---3---3-3-|\
Bb|-3-------3-----3-3-3-3---3---3-3-3-------3-----3-3-3-3---3---3-3-| \
Gb|-0-------0-----0-0-0-0---0---0-0-2-------2-----2-2-2-2---2---2-2-|  \
Db|-0-------0-----0-0-0-0---0---0-0-0-------0-----0-0-0-0---0---0-0-|   \
Ab|-x-------x-----x-x-x-x---x---x-x-0-------0-----0-0-0-0---0---0-0-|    \
Eb|-3-------3-----3-3-3-3---3---3-3-2-------2-----2-2-2-2---2---2-2-|     \
                                                                          x2
eb|-3-------3-----3-3-3-3---3---3-3-3-------3-----3-3-3-3---3---3-3-|     /
Bb|-3-------3-----3-3-3-3---3---3-3-3-------3-----3-3-3-3---3---3-3-|    /
Gb|-0-------0-----0-0-0-0---0---0-0-0-------0-----0-0-0-2---2---2-2-|   /
Db|-2-------2-----2-2-2-2---2---2-2-2-------2-----2-2-2-0---0---0-0-|  /
Ab|-2-------2-----2-2-2-2---2---2-2-3-------3-----3-3-3-0---0---0-0-| /
Eb|-0-------0-----0-0-0-0---0---0-0---------------------2---2---2-2-|/

eb|---------0-----0-0-0-0---0-0-0-0---------3-----3-3-3-3---3-3-3-3-|\
Bb|---------1-----1-1-1-1---1-1-1-1---------3-----3-3-3-3---3-3-3-3-| \
Gb|---------0-----0-0-0-0---0-0-0-0---------0-----0-0-0-0---2-2-2-2-|  \
Db|-2-------2-----2-2-2-2---2-2-2-2-2-------2-----2-2-2-2---0-0-0-0-|  / x2
Ab|-0-------0-----0-0-0-0---0-0-0-0-3-------3-----3-3-3-3---0-0-0-0-| /
Eb|---------------------------------------------------------2-2-2-2-|/
Chorus 2:
eb|-3-------3-----3-3-3-3---3---3-3-3-------3-----3-3-3-3---3---3-3-|\
Bb|-3-------3-----3-3-3-3---3---3-3-3-------3-----3-3-3-3---3---3-3-| \
Gb|-0-------0-----0-0-0-0---0---0-0-2-------2-----2-2-2-2---2---2-2-|  \
Db|-0-------0-----0-0-0-0---0---0-0-0-------0-----0-0-0-0---0---0-0-|   \
Ab|-x-------x-----x-x-x-x---x---x-x-0-------0-----0-0-0-0---0---0-0-|    \
Eb|-3-------3-----3-3-3-3---3---3-3-2-------2-----2-2-2-2---2---2-2-|     \
                                                                          x2
eb|-3-------3-----3-3-3-3---3---3-3-3-------3-----3-3-3-3---3---3-3-|     /
Bb|-3-------3-----3-3-3-3---3---3-3-3-------3-----3-3-3-3---3---3-3-|    /
Gb|-0-------0-----0-0-0-0---0---0-0-0-------0-----0-0-0-0---0---0-0-|   /
Db|-2-------2-----2-2-2-2---2---2-2-2-------2-----2-2-2-2---2---2-2-|  /
Ab|-2-------2-----2-2-2-2---2---2-2-3-------3-----3-3-3-3---3---3-3-| /
Eb|-0-------0-----0-0-0-0---0---0-0---------------------------------|/

eb|-3-------3---3-------3---3---------------------------------------|\
Bb|-3-------3---3-------3---3---------------------------------------| \
Gb|-0-------0---2-------2---0---------------------------------------|  \
Db|-2-------2---0-------0---2---------------------------------------|  /x2
Ab|-2-------2---0-------0---3---------------------------------------| /
Eb|-0-------0---3-------3-------------------------------------------|/
Interlude:
eb|-3-------3-----3-3-3-3---3---3-3-3-------3-----3-3-3-3---3---3-3-|\
Bb|-3-------3-----3-3-3-3---3---3-3-3-------3-----3-3-3-3---3---3-3-| \
Gb|-0-------0-----0-0-0-0---0---0-0-0-------0-----0-0-0-0---0---0-0-|  \
Db|-2-------2-----2-2-2-2---2---2-2-0-------0-----0-0-0-0---0---0-0-|   \
Ab|-3-------3-----3-3-3-3---3---3-3-x-------x-----x-x-x-x---x---x-x-|    \
Eb|---------------------------------3-------3-----3-3-3-3---3---3-3-|     \
                                                                          x2
eb|-3-------3-----3-3-3-3---3---3-3-2-------2-----2-2-2-2---2---2-2-|     /
Bb|-3-------3-----3-3-3-3---3---3-3-3-------3-----3-3-3-3---3---3-3-|    /
Gb|-0-------0-----0-0-0-0---0---0-0-2-------2-----2-2-2-2---2---2-2-|   /
Db|-2-------2-----2-2-2-2---2---2-2-0-------0-----0-0-0-0---0---0-0-|  /
Ab|-2-------2-----2-2-2-2---2---2-2---------------------------------| /
Eb|-0-------0-----0-0-0-0---0---0-0---------------------------------|/

eb|-3---------------------------------------------------------------|
Bb|-3---------------------------------------------------------------| 
Gb|-0---------------------------------------------------------------|  
Db|-2---------------------------------------------------------------|   
Ab|-3---------------------------------------------------------------|    
Eb|-----------------------------------------------------------------| 
Chorus 3:
eb|-3-------------------------------3-------------------------------|\
Bb|-3-------------------------------3-------------------------------| \
Gb|-0-------------------------------2-------------------------------|  \
Db|-0-------------------------------0-------------------------------|   \
Ab|-x-------------------------------0-------------------------------|    \
Eb|-3-------------------------------2-------------------------------|     \
                                                                          x2
eb|-3-------------------------------3-------------------------------|     /
Bb|-3-------------------------------3-------------------------------|    /
Gb|-0-------------------------------0-------------------------------|   /
Db|-2-------------------------------2-------------------------------|  /
Ab|-2-------------------------------3-------------------------------| /
Eb|-0---------------------------------------------------------------|/

eb|-3-------3-----3-3-3-3---3---3-3-3-------3-----3-3-3-3---3---3-3-|\
Bb|-3-------3-----3-3-3-3---3---3-3-3-------3-----3-3-3-3---3---3-3-| \
Gb|-0-------0-----0-0-0-0---0---0-0-2-------2-----2-2-2-2---2---2-2-|  \
Db|-0-------0-----0-0-0-0---0---0-0-0-------0-----0-0-0-0---0---0-0-|   \
Ab|-x-------x-----x-x-x-x---x---x-x-0-------0-----0-0-0-0---0---0-0-|    \
Eb|-3-------3-----3-3-3-3---3---3-3-2-------2-----2-2-2-2---2---2-2-|     \
                                                                          x2
eb|-3-------3-----3-3-3-3---3---3-3-3-------3-----3-3-3-3---3---3-3-|     /
Bb|-3-------3-----3-3-3-3---3---3-3-3-------3-----3-3-3-3---3---3-3-|    /
Gb|-0-------0-----0-0-0-0---0---0-0-0-------0-----0-0-0-0---0---0-0-|   /
Db|-2-------2-----2-2-2-2---2---2-2-2-------2-----2-2-2-2---2---2-2-|  /
Ab|-2-------2-----2-2-2-2---2---2-2-3-------3-----3-3-3-3---3---3-3-| /
Eb|-0-------0-----0-0-0-0---0---0-0---------------------------------|/

eb|-3-------3---3-------3---3---------------------------------------|\
Bb|-3-------3---3-------3---3---------------------------------------| \
Gb|-0-------0---2-------2---0---------------------------------------|  \
Db|-2-------2---0-------0---2---------------------------------------|  /x2
Ab|-2-------2---0-------0---3---------------------------------------| /
Eb|-0-------0---3-------3-------------------------------------------|/

eb|-3---------------------------------------------------------------|
Bb|-3---------------------------------------------------------------| 
Gb|-0---------------------------------------------------------------|  
Db|-0---------------------------------------------------------------|   
Ab|-x---------------------------------------------------------------|    
Eb|-3---------------------------------------------------------------|   
************************************
thanks guys! hope you liked it!
************************************
Tap to rate this tab
# A B C D E F G H I J K L M N O P Q R S T U V W X Y Z