Guitaretab - guitar tabs
Song name
# A B C D E F G H I J K L M N O P Q R S T U V W X Y Z

Running Wild - Preacher tab

This tab wasn't written by me, but I'm submitting it anyway... :)


Transcription by erikgotborn@hotmail.com (erik gotborn)


Taken from the album "Gates to Purgatory".

Tuning: E

Some riffs are played with muted strings, and I havenít transcribed
how many times they play on each chord.

Riff 1
    <--3x->       <--3x--------------|
E -----------------------------------|
A -----------------------------------|
G -----------------------------------|
D --2-4-4-4-------2-4-4-4--------12--|
A --0-2-2-2-5--4--0-2-2-2-5-4-5--10--|
E ----------3--2----------3-2-3------|
        x x           x x

Riff 2
E -----------------------------|
A -----------------------------|
G -----------------------------|
D -----------------------------|
A --4--------------------------|
E --2--------------------------|
    x

Riff 3
E -------------------------------------------------|
A -------------------------------------------------|
G -------------------------------------------------|
D --7--9--7--9--11-12-11--7---7--9--7--9--4-5-4----|
A --5--7--5--7---9-10--9--5---5--7--5--7--2-3-2--5-|
E -----------------------------------------------3-|

Riff 4
E -------------------------------------|
A -------------------------------------|
G --1-1-------------------1-1----------|
D --2-2-------------------2-2----8-7-5-|
A --2-2----5-4-5-4-5--8---2-2----6-5-3-|
E ---------3-2-3-2-3--6----------------|
[ Tab from: http://www.guitaretab.com/r/running-wild/153034.html ]
E ---------------------------------|
A ---------------------------------|
G --1-1-------------------1-1------|
D --2-2-------------------2-2---10-|
A --2-2----5-4-5-4-5--8---2-2----8-|
E ---------3-2-3-2-3--6------------|

Riff 5
    <--3x->       <--3x-------------|
E ----------------------------------|
B ----------------------------------|
G ----------------------------------|
D --7-9-9-9-5--4--7-9-9-9-4-2-4--5--|
A --5-7-7-7-3--2--5-7-7-7-2-0-2--3--|
E ----------------------------------|
        x x           x x
Riff 6
E ----
B ----
G --1-
D --2-
A --2-
E ----


Preacher

Riff 1 x6
Friday night the 13th and the ruins of a crow
Dark figures come together for an awful vow
They have sworn to Satan to celebrate a black mass
Damned rites are prepared, black angels they bless

Riff 2 x1
Demon and devil, the preacher's peril

Riff 1 x4
Snakeblood and poison, the cauldron is boiling
To condemn the holy cross, black rites are soiling
Witches are dancing around the altar
Praying to their master to celebrate the holy war

Riff 2 x1
Demon and devil, the preacher's peril

Riff 3 x2
Riff 4 x2
Riff 5 x4
Riff 1 x2
Riff 2 x1
Demon and devil, the preacher's peril

Riff 1 x4
Since million years religion keeps knowledge of the dark
The church discloses sacred rules to mark
They are full of ignorance if they don't realise
That there is more than they can see of religious size

Riff 2 x1
Demon and devil, the preacher's peril

Riff 3 x2
Riff 4 x2
Riff 6 x1
Related for Preacher tab