Song name
# A B C D E F G H I J K L M N O P Q R S T U V W X Y Z

Running Wild - Blazon Stone tab

Running Wild
Blazon Stone
Blazon Stone

v 1.0 April 2008


~ = vibrato or held note
h = hammer on
p = pull off
s = slide
T = tap
fb =  full bend
hb = half bend
fhb = full and a half bend
r = release bend
* = artificial harmonic


Blazon Stone, one of the canditates for best Running Wild song ever - its very rich in 
and has a good structure! Some good tremolo practice as well.
Corrections, suggestions to beardedattacker@hotmail.com

(00:01) Figure A

e:-------------------------------------------------------------------|
B:---------21--21----19------19--21-----------------------19---------|
G:o--18------------------21----------18----20-21----20-21-----21--20-|
D:o--------18--18----16------16--18-----------------------16---------|
A:---16------------------19----------16----18-19----18-19-----19--18-|
E:-------------------------------------------------------------------|
 |                                                                   |
e:-------------------------------------------------------------------|
B:-------------------------------------------------------------------|
G:o------------------------------------------------------------------|
D:o------------6-----4-------4---6------------------------4----------|
A:---4-----7-------------7-----------4-----2--0-----0--0------4---2--|
E:-------------------------------------------------------------------|

           2nd ending       4th ending
e:-------|----------------|------------------------------------------|
B:-------|----------------|------------------------------------------|
G:--18~-o|---18--19--13---|---18--19--13---11-9--6-------------------|
D:------o|----------------|------------------------------------------|
A:--16~--|---16--14--11---|---16--14--11---9--7--4-------------------|
E:-------|----------------|------------------------------------------|
 |                                                                   |
e:-------|-----------------------------------------------------------|
B:-------|-----------------------------------------------------------|
G:------o|-----------------------------------------------------------|
D:------o|-----------------------------------------------------------|
A:--4~---|-----------------------------------------------------------|
E:-------|-----------------------------------------------------------|


(00:52) Figure B

e:-------------------------------------------------------------------|
B:-------------------------------------------------------------------|
G:----------------------------------------------------------4--------|
D:--------6----4---------4----6--------------6----4--------------6---|
A:---4--------------7--------------4----4--------------7-------------|
E:-------------------------------------------------------------------|
 |                                                                   |
e:-------------------------------------------------------------------|
B:-------------------------------------------------------------------|
G:----------------------------------------------------------4--------|
D:---6----------------------------------6-------------------2--------|
A:---4----------------------------------4----------------------------|
E:-------------------------------------------------------------------|


e:-------------------------------------------------------------------|
B:-------------------------------------------------------------------|
G:-------------------------------------------------------------------|
D:---4-------------6----4---------4----6--------------6----4---------|
A:-------7----4--------------7--------------4----4--------------7----|
E:-------------------------------------------------------------------|
 |                                                                   |
e:-------------------------------------------------------------------|
B:-------------------------------------------------------------------|
G:-------------------------------------------------------------------|
D:------------2----------------------------------6-------------------|
A:------------0----------------------------------4-------------------|
E:-------------------------------------------------------------------|


e:---------------------|---------------------------------------------|
B:---------------------|---------------------------------------------|
G:---4-----------------|---------------------------------------------|
D:--------6----4-------|-------6----4---------4----6--------------6--|
A:------------------7--|--4--------------7--------------4----4-------|
E:---------------------|---------------------------------------------|
 |                                                                   |
e:---------------------|---------------------------------------------|
B:---------------------|---------------------------------------------|
G:---4-----------------|---------------------------------------------|
D:---2---------4-------|-------6----6-----------------------------6--|
A:-------------2-------|-------4----4-----------------------------4--|
E:---------------------|---------------------------------------------|


e:-------------------------------------------------------------------|
B:-------------------------------------------------------------------|
G:------------4------------------------------------------------------|
D:--4--------------6----4--------------6----4---------4----6---------|
A:-------7-------------------7----4--------------7--------------4----|
E:-------------------------------------------------------------------|
 |                                                                   |
e:-------------------------------------------------------------------|
B:-------------------------------------------------------------------|
G:------------4------------------------------------------------------|
D:--6---------2------------------------2----2------------------------|
A:--4----------------------------------0----0------------------------|
E:-------------------------------------------------------------------|


e:-------------------------------------------------------------------|
B:-------------------------------------------------------------------|
G:-----------------------4-------------------------------------------|
D:--------6----4--------------6----4---------------------------------|
A:---4--------------7-------------------7----------------------------|
E:-------------------------------------------------------------------|
 |                                                                   |
e:-------------------------------------------------------------------|
B:-------------------------------------------------------------------|
G:-----------------------4-------------------------------------------|
D:--------6----6---------2---------4---------------------------------|
A:--------4----4-------------------2---------------------------------|
E:-------------------------------------------------------------------|

(01:13) Figure C

e:-------------------------------------------------------------------|
B:-------------------------------------------------------------------|
G:----------------------------------------------------------4--------|
D:--------6----4---------4----6--------------6----4--------------6---|
A:---4--------------7--------------4----4--------------7-------------|
E:-------------------------------------------------------------------|
 |                                                                   |
e:-------------------------------------------------------------------|
B:-------------------------------------------------------------------|
G:----------------------------------------------------------4--4-4-4-|
D:---6--6-6-6-6---6-6-6-6---6-6-6-6------6--6-6-6-6---6-6-6-2--2-2-2-|
A:---4--4-4-4-4---4-4-4-4---4-4-4-4------4--4-4-4-4---4-4-4----------|
E:-------------------------------------------------------------------|


e:-------------------------------------------------------------------|
B:-------------------------------------------------------------------|
G:-------------------------------------------------------------------|
D:---4-2h4p2-------6----4---------4----6--------------6----4---------|
A:------------4--------------7--------------4----4--------------7----|
E:-------------------------------------------------------------------|
 |                                                                   |
e:-------------------------------------------------------------------|
B:-------------------------------------------------------------------|
G:-------------------------------------------------------------------|
D:---4--4-4-4-2--2-2-2-2---2-2-2-2---2-2-2-2-----6--6-6-6-6---6-6-6--|
A:---2--2-2-2-0--0-0-0-0---0-0-0-0---0-0-0-0-----4--4-4-4-4---4-4-4--|
E:-------------------------------------------------------------------|

                        2nd time
e:---------------------|---------------------------------------------|
B:---------------------|---------------------------------------------|
G:--4-----------------o|---------------------------------------------|
D:-------6----4-------o|---------------------------------------------|
A:-----------------7---|--4~~----------------------------------------|
E:---------------------|---------------------------------------------|
 |                                                                   |
e:---------------------|---------------------------------------------|
B:---------------------|---------------------------------------------|
G:--4--4-4-4----------o|---------------------------------------------|
D:--2--2-2-2-4--4-4-4-o|--6~~----------------------------------------|
A:-----------2--2-2-2--|--4~~----------------------------------------|
E:---------------------|---------------------------------------------|

(01:39) Figure D

e:-------------------------------------------------------------------|
B:-------------------------------------------------------------------|
G:-------------------------------------------------------------------|
D:---------------4-4-4-6-6-6-------------4-4-4-6-6-6-------------4-4-|
A:---4-4-4-7-7-7-------------4-4-4-7-7-7-------------4-4-4-7-7-7-----|
E:-------------------------------------------------------------------|
 |                                                                   |
e:-------------------------------------------------------------------|
B:-------------------------------------------------------------------|
G:-------------------------------------------------------------------|
D:---6-6-6-6-6-6-6--------6-6-6-6-6-6-6-----4-4-4-4---6-6-6-6-6-6-6--|
A:---4-4-4-4-4-4-4--------4-4-4-4-4-4-4-----2-2-2-2---4-4-4-4-4-4-4--|
E:-------------------------------------------------------------------|


e:-------------------------------------------------------------------|
B:-------------------------------------------------------------------|
G:------------4-4-4--------------------------------------------------|
D:---4-6-6-6--------6-6-6-4-4-4--------------------------------------|
A:------------------------------7-7-7--------------------------------|
E:-------------------------------------------------------------------|
 |                                                                   |
e:-------------------------------------------------------------------|
B:-------------------------------------------------------------------|
G:-------------------------------------------------------------------|
D:------6-6-6-6-6-6-6------4-4-4-4-----------------------------------|
A:------4-4-4-4-4-4-4------2-2-2-2-----------------------------------|
E:-------------------------------------------------------------------|

(01:44) Figure E

e:-------------------------------------------------------------------|
B:-------------------------------------------------------------------|
G:-------------------------------------------------------------------|
D:---------------4-4-4-6-6-6-------------4-4-4-6-6-6-----------------|
A:---4-4-4-7-7-7-------------4-4-4-7-7-7-------------4-4-4-7-7-7-----|
E:-------------------------------------------------------------------|


e:--------------------------------------|----------------------------|
B:--------------------------------------|----------------------------|
G:--------------4-4-4-------------------|----------------------------|
D:--4-4-4-6-6-6-------6-6-6-4-4-4-------|---------------4-4-4-6-6-6--|
A:--------------------------------7-7-7-|--4-4-4-7-7-7---------------|
E:--------------------------------------|----------------------------|


e:-------------------------------------------------------------------|
B:-------------------------------------------------------------------|
G:-------------------------------------------------------------------|
D:-------------4-4-4-6-6-6-------------4-4-4-6-6-6-4-4-4-------------|
A:-4-4-4-7-7-7-------------4-4-4-7-7-7-------------------7-7-7-------|
E:-------------------------------------------------------------7-7-7-|


e:-------------------------------------------------------------------|
B:-------------------------------------------------------------------|
G:-------------------------------------------------------------------|
D:-------------6-6-6-9-9-9-------------6-6-6-9-9-9-------------6-6-6-|
A:-7-7-7-9-9-9-------------7-7-7-9-9-9-------------7-7-7-9-9-9-------|
E:-------------------------------------------------------------------|


e:--------------------------------|----------------------------------|
B:--------------------------------|----------------------------------|
G:--------6-6-6-------------------|----------------------------------|
D:--9-9-9-------9-9-9-6-6-6-------|--------------4-4-4-6-6-6---------|
A:--------------------------7-7-7-|--4-4-4-7-7-7-------------4-4-4---|
E:--------------------------------|----------------------------------|


e:-------------------------------------------------------------------|
B:-------------------------------------------------------------------|
G:-------------------------------------------------------------------|
D:--------4-4-4-6-6-6-------------4-4-4-6-6-6-4-4-4------4-----------|
A:--7-7-7-------------4-4-4-7-7-7-------------------7-4--2-----------|
E:-------------------------------------------------------------------|

(02:04) Figure F (2 guitars)

e:-------------------------------------------------------------------|
B:-----------------------------------------------------------5-5-6-6-|
G:o------------------------------------------------------------------|
D:o-----2-----------2-2--------2-----------2------2----------2-2-4-4-|
A:--4-4---4-4-2-4-4-----4--4-4---4-4-2-4-4-0--4-4---4-4-2-4-4--------|
E:-------------------------------------------------------------------|


e:-------------------------------------------------------------------|
B:-6-9-9-9-5h7p5-----------------------------------------------------|
G:---------------4--------------------------------------------------o|
D:-4-6-6-6-2h4p2----------------------------------------------------o|
A:---------------2---------------------------------------------------|
E:-------------------------------------------------------------------|

(02:14) Figure G

e:-------------------------------------------------------------------|
B:-------------------------------------------------------------------|
G:o------------------------------------------------------------------|
D:o------------------------------------------------------------------|
A:---4-4-4-4-4-4-4-4-4-4-4-4-4-4-4-4-4-4-4-4-4-4-4-4-4-4-4-4-4-4-4-4-|
E:-------------------------------------------------------------------|
 |                                                                   |
e:-------------------------------------------------------------------|
B:-------------------------------------------------------------------|
G:-------------------------------------------------------------------|
D:-------------------------------------------------------------------|
A:---4-4-4-4-4-4-4-4-4-4-4-4-4-4-4-4-4-4-4-4-4-4-4-4-4-4-4-4-4-4-4-4-|
E:-------------------------------------------------------------------|


e:--------------------------------|----------------------------------|
B:--------------------------------|----------------------------------|
G:--------------------------------|----------------------------------|
D:-----------4-4-4-6-6-6-2-4p2----|----------------------------------|
A:--4-4-4-4--------------------2--|--0-0-0-0-0-0-0-0-0-0-0-0-0-0-0-0-|
E:--------------------------------|----------------------------------|
 |                                                                   |
e:--------------------------------|----------------------------------|
B:--------------------------------|----------------------------------|
G:--------------------------------|----------------------------------|
D:-----------------------------2--|----------------------------------|
A:--4-4-4-4--2-2-2-4-2p0-2-2-2----|--0-0-0-0-0-0-0-0-0-0-0-0-0-0-0-0-|
E:--------------------------------|----------------------------------|


e:-------------------------------------------------------------------|
B:-------------------------------------------------------------------|
G:--------------------------------4--------------6-4----------------o|
D:-------------------6--6-6-6-6-6-2-4-6--6-6-6-6-4-2-4--------------o|
A:--0-0-0-0-0-0-0-0--4--4-4-4-4-4---2-4--4-4-4-4-----2---------------|
E:-------------------------------------------------------------------|
 |                                                                   |
e:-------------------------------------------------------------------|
B:-------------------------------------------------------------------|
G:------------------------------------------------------------------o|
D:--------------------------------2--------------4-2----------------o|
A:--0-0-0-0-0-0-0-0--4--4-4-4-4-4---2-4--4-4-4-4-----2---------------|
E:-------------------------------------------------------------------|

(02:34) Figure H

e:-------------------------------------------------------------------|
B:-------------------------------------------------------------------|
G:-------------------------------------------------------------------|
D:---2---------4--------------------4-4-4-6-6-6-------------4-4-4----|
A:---0---------2--------4-4-4-7-7-7-------------4-4-4-7-7-7----------|
E:-------------------------------------------------------------------|


e:-------------------------------------------------------------------|
B:-------------------------------------------------------------------|
G:-------------------------------------------4--------6--------------|
D:--------2--------4----4-4--6----2--6----4--2--------4--2--4-4--6---|
A:--2-2-2-0--------2----2-2--4----0--4----2--------------0--2-2--4---|
E:-------------------------------------------------------------------|


e:-------------------------------------------------------------------|
B:-------------------------------------------------------------------|
G:-------------4--------6--------------------------------------------|
D:--2--6----4--2--------4--2--4-4------------------------------------|
A:--0--4----2--------------0--2-2------------------------------------|
E:-------------------------------------------------------------------|

(02:51) Figure I

e:-------------------------------------------------------------------|
B:-------------------------------------------------------------------|
G:-------------------------------------------------------------------|
D:---6--------6--------6p4---4-----------------9--------9--------6p4-|
A:---4--4-4-4-4--4-4-4-----7---7p6-7-6p4-6p4---7--7-7-7-7--7-7-7-----|
E:-------------------------------------------7-----------------------|


e:-------------------------------------------------------------------|
B:-------------------------------------------------------------------|
G:-------------------------------------------------------------------|
D:-----4------------------6---------6-------6p4---4------------------|
A:---7---7p6-7-6p4-6p4----4--4-4-4--4-4-4-4-----7---7p6-7-6p4-6p4----|
E:---------------------7------------------------------------------7--|


e:-------------------------------------------------------------------|
B:-------------------------------------------------------------------|
G:-------------------------------------------------------------------|
D:--9--------9---------6p4---4-----------------6----4----------------|
A:--7--7-7-7-7--7-7-7------7---7p6-7-6p4-6p4---4----2----------------|
E:-------------------------------------------7-----------------------|

(03:02) Figure J (lead Rolf)

e:---12p9------------14p12p0----------12p9---------------------------|
B:--------12-12p9h12---------14-12h14------12-12p9----14p12----------|
G:-------------------------------------------------11-------9h11p9---|
D:-------------------------------------------------------------------|
A:-------------------------------------------------------------------|
E:-------------------------------------------------------------------|


e:------------------------------------|------------------------------|
B:------------------------------------|------------------------------|
G:------------------------------------|------------------------------|
D:--9-11--9-11------------------------|-----------2*---2*--s6*-4*-2*-|
A:--------------11--9--7--9s11p9s7----|--4*-2*-4*---4*---------------|
E:---------------------------------7~-|------------------------------|


e:---------------4--------------------------------|--4-4-7p4p0--4-4--|
B:------------------7--5-----5--------------------|------------------|
G:------------------------6-----6p4--6--4*-1*-----|------------------|
D:--4*--(2*-4*)-------------------------------2*--|------------------|
A:------------------------------------------------|------------------|
E:------------------------------------------------|------------------|


e:--7p4p0-4--4-7p4p0------------------------------7p5p4--------------|
B:--------------------5--5--7p5p4-------5-5-7p5---------7p5p4--------|
G:--------------------------------6-4-6-----------------------6~~----|
D:-------------------------------------------------------------------|
A:-------------------------------------------------------------------|
E:-------------------------------------------------------------------|


e:--16--19--16--19fb----19fb-19fb-19fb-19fb-(21)p16------------------|
B:--------------------------------------------------17-19-17p16------|
G:--------------------------------------------------------------18---|
D:-------------------------------------------------------------------|
A:-------------------------------------------------------------------|
E:-------------------------------------------------------------------|


e:-------------------------------------------------------------------|
B:--16---------------------------------21~~~~~~----------------------|
G:-----18-16---------------------------------------------------------|
D:-----------18-16----16h18p16---------------------------------------|
A:-----------------19----------19-16---------------------------------|
E:-------------------------------------------------------------------|

(03:02) Figure K

e:-------------------------------------------------------------------|
B:-------------------------------------------------------------------|
G:o------------------------------------------------------------------|
D:o--9--------9--------9--------13-11-9--6--------6--------6---------|
A:---7--7-7-7-7--7-7-7-7--7-7-7-11-9--7--4--4-4-4-4--4-4-4-4--4-4-4--|
E:-------------------------------------------------------------------|


e:-------------------------------------------------------------------|
B:-------------------------------------------------------------------|
G:-------------------------------------------------------------------|
D:--6----------------------------------------------------------------|
A:--4--4-4-4---------------------------------------------------------|
E:-------------------------------------------------------------------|

(04:30) Figure L

e:-------------------------------------------------------------------|
B:-------------------------------------------------------------------|
G:---------------------------------------4-6-4-----------------------|
D:---------------2-----------------------------4-4---------------2---|
A:---2-4-4-4-4-4---4-4-4-4-4-2-4-4-4-4-4-----------0-2-4-4-4-4-4---4-|
E:-------------------------------------------------------------------|

e:-------------------------------------------------------------------|
B:-------------------------------------------------------------------|
G:-------------------------------------------------------------------|
D:-----------------------2--4----------------------------------------|
A:--4-4-4-4-2-4-2-0---0--0--2----------------------------------------|
E:------------------2------------------------------------------------|

(04:50) Figure M (lead Morgan)

e:-------------------------------------------------------------------|
B:-------------------------------------------------------------------|
G:------------18~---16-------------------------------13-14-13----13--|
D:---------18----------19-18-19----------------14-16----------16-----|
A:---16-19----------------------14s16----14-16-----------------------|
E:-------------------------------------------------------------------|


e:-------------------------------------------------------------------|
B:--------14----s19-17-16----16-------17-16-------------------16-17--|
G:--14-16-----------------18----18-16-------18-16-------16-18--------|
D:------------------------------------------------18-----------------|
A:-------------------------------------------------------------------|
E:-------------------------------------------------------------------|


e:--------------16-17-19-19fb----------------------------------------|
B:--19-16-17h19------------------------------------------------------|
G:-------------------------------------------------------------------|
D:-------------------------------------------------------------------|
A:-------------------------------------------------------------------|
E:-------------------------------------------------------------------|

(05:10) Figure N

e:-------------------------------------------------------------------|
B:-------------------------------------------------------------7-7-7-|
G:o--9-9-9-9-9-9-9-9-8-8-----------------6-6-6-6-6-6-6-6-9-9-9-------|
D:o----------------------9-9-9-9-9-9-6-9-----------------------------|
A:-------------------------------------------------------------------|
E:-------------------------------------------------------------------|
 |                                                                   |
e:-------------------------------------------------------------------|
B:-------------------------------------------------------------------|
G:o--4--------4-------------------------------------------4----------|
D:o--2--2-2-2-2--2-2-2-4--------4--------6--------6-------2--2-2-2-4-|
A:---------------------2--2-2-2-2--2-2-2-4--4-4-4-4-4-4-4----------2-|
E:-------------------------------------------------------------------|


e:-------------------------------------------------------------------|
B:-9-9-9-10-9--------------------------------------------------------|
G:------------------------------------------------------------------o|
D:------------------------------------------------------------------o|
A:-------------------------------------------------------------------|
E:-------------------------------------------------------------------|
 |                                                                   |
e:-------------------------------------------------------------------|
B:-------------------------------------------------------------------|
G:------------------------------------------------------------------o|
D:------------------------------------------------------------------o|
A:--2-2-2------------------------------------------------------------|
E:-------------------------------------------------------------------|

(06:18) Figure O

e:-------------------------------------------------------------------|
B:-------------------------------------------------------------------|
G:-------------------------------------------------------------------|
D:---------------4-4-4-6-6-6-------------4-4-4-6-6-6-------------4-4-|
A:---4-4-4-7-7-7-------------4-4-4-7-7-7-------------4-4-4-7-7-7-----|
E:-------------------------------------------------------------------|
 |                                                                   |
e:-------------------------------------------------------------------|
B:-------------------------------------------------------------------|
G:-------------------------------------------------------------------|
D:---6-6-6-6-6-6-6--------6-6-6-6-6-6-6-----4-4-4-4---6-6-6-6-6-6-6--|
A:---4-4-4-4-4-4-4--------4-4-4-4-4-4-4-----2-2-2-2---4-4-4-4-4-4-4--|
E:-------------------------------------------------------------------|


e:-------------------------------------------------------------------|
B:-------------------------------------------------------------------|
G:------------4-4-4--------------------------------------------------|
D:---4-6-6-6--------6-6-6-4-4-4---------------------4-4-4-6-6-6------|
A:------------------------------7-7-7---4-4-4-7-7-7-------------4-4--|
E:-------------------------------------------------------------------|
 |                                                                   |
e:-------------------------------------------------------------------|
B:-------------------------------------------------------------------|
G:-------------------------------------------------------------------|
D:------6-6-6-6-6-6-6------4-4-4-4------6-6-6-6-6-6-6--------6-6-6-6-|
A:------4-4-4-4-4-4-4------2-2-2-2------4-4-4-4-4-4-4--------4-4-4-4-|
E:-------------------------------------------------------------------|


e:-------------------------------------------------------------------|
B:-------------------------------------------------------------------|
G:-------------------------------------------------------------------|
D:---------4-4-4-6-6-6-------------4-4-4-6-6-6-------------4-4-4-6-6-|
A:-4-7-7-7-------------4-4-4-7-7-7-------------4-4-4-7-7-7-----------|
E:-------------------------------------------------------------------|
 |                                                                   |
e:-------------------------------------------------------------------|
B:-------------------------------------------------------------------|
G:-------------------------------------------------------------------|
D:--6-6-6-----4-4-4-4---6-6-6-6-6-6-6-----6-6-6-6-6-6-6-----4-4-4-4--|
A:--4-4-4-----2-2-2-2---4-4-4-4-4-4-4-----4-4-4-4-4-4-4-----2-2-2-2--|
E:-------------------------------------------------------------------|


e:-------------------------------------------------------------------|
B:-------------------------------------------------------------------|
G:-------------------------------------------------------------------|
D:--------------4-4-4-6-6-6-4-4-----------------6--------------------|
A:--4-4-4-7-7-7-----------------7-7-4-4-2-2-----4--------------------|
E:-------------------------------------------------------------------|
 |                                                                   |
e:-------------------------------------------------------------------|
B:-------------------------------------------------------------------|
G:-------------------------------------------------------------------|
D:--6-6-6-6-6-6-6-----6-6-6-6-6-6-6-----4-4-4-4-6--------------------|
A:--4-4-4-4-4-4-4-----4-4-4-4-4-4-4-----2-2-2-2-4--------------------|
E:-------------------------------------------------------------------|
Tap to rate this tab
# A B C D E F G H I J K L M N O P Q R S T U V W X Y Z