Guitaretab - guitar tabs
Song name
# A B C D E F G H I J K L M N O P Q R S T U V W X Y Z

Running Wild - Pile Of Skulls tab

Pile of Skullls 


 A          C          A          C          D
|/   |(/)  |/   |(/)  |/   |(/)  |/   |(/) / /|

 A          C          A          C          D
|/   |(/)  |/   |(/)  |/   |(/)  |/   |(/) / /|


|-----------------|-----------------|-----------------|-----------------|
|-----------------|-1---------------|-----------------|-----------------|
|-0-2-2-2-2-2-2-2-|----2-2-0-2-2-0--|-----------------|-0---------------|
|-----------------|-----------------|-0-2-2-2-2-2-2-2-|-----2-2-0-2-2-0-|
|-----------------|-----------------|-----------------|-----------------|
|-----------------|-----------------|-----------------|-----------------|
|
|
|-----------------|-----------------|-----------------|-----------------|
|-----------------|-----------------|-----------------|-----------------|
|-----------------|-----------------|-----------------|-----------------|
|-----------------|-----------------|-----------------|-----------------|
|-0-0-0-0-0-0-0-0-|-0-0-0-0-0-0-0-0-|-3-3-3-3-3-3-3-3-|-3-3-3-3-3-3-3-3-|
|-----------------|-----------------|-----------------|-----------------|
[ Tab from: http://www.guitaretab.com/r/running-wild/33555.html ]
|-----------------|-----------------|-----------------|-----------------|
|-----------------|-1---------------|-1-1-1---3-3-3---|-----------------|
|-0-2-2-2-2-2-2-2-|-----2-2-0-2-2-0-|-----------------|-0-0-0---2---2---|
|-----------------|-----------------|-----------------|-----------------|
|-----------------|-----------------|-----------------|-----------------|
|-----------------|-----------------|-----------------|-----------------|
|
|
|-----------------|-----------------|-----------------|-----------------|
|-----------------|-----------------|-----------------|-----------------|
|-----------------|-----------------|-----------------|-----------------|
|-----------------|-----------------|-----------------|-----------------|
|-0-0-0-0-0-0-0-0-|-0-0-0-0-0-0-0-0-|-----------------|-----------------|
|-----------------|-----------------|-----------------|-----------------|


|------------------|------------------|------------------|-------------------|
|------------------|------------------|------------------|-------------------|
|------------------|-7-------9-7------|------------------|-----7-------------|
|-7-7-7-7-10-7-7-7-|---7-7-7-----10-7-|-7-7-7-7-10-7-7-7-|-7-7---7-10-7------|
|------------------|------------------|------------------|--------------10---|
|------------------|------------------|------------------|-------------------|

|------------------|------------------|------------------|-----------------|
|------------------|------------------|------------------|-----------------|
|------------------|-7-------9-7------|------------------|-----7-----------|
|-7-7-7-7-10-7-7-7-|---7-7-7-----10-7-|-7-7-7-7-10-7-7-7-|-7-7-----5-------|
|------------------|------------------|------------------|-----------------|
|------------------|------------------|------------------|-----------------|


That's All folks! Um abrašo aos Brasileiros!
Related for Pile Of Skulls tab