Song name
# A B C D E F G H I J K L M N O P Q R S T U V W X Y Z

Running Wild - Adventure Galley tab

-------------------------------------------------------------------------------
			     Adventure Galley - Running Wild
-------------------------------------------------------------------------------
Tabbed by: niko306
E-mail: niko306@gmail.com

Tuning: Standard (EADGBe)

Intro:

e|-----------------------------------------------------------------------------------|
B|------------------------9-9-9-9-----------------9-9--------------------------------|
G|--------------9-9-11-11---------11-11-9-9-11-11-----11-11-9-9-11-11-9-9------------|
D|--11-11-11-11-----------------------------------------------------------11-11-9-9--|
A|-----------------------------------------------------------------------------------|
E|-----------------------------------------------------------------------------------|

e|-----------------------------------------------------------------------------------|
H|------------------------9-9-9-9-------9-9-12-12-9-9--------------------------------|
G|--------------9-9-11-11---------11-11---------------11-11-9-9-11-11-9-9------------|
D|--11-11-11-11-----------------------------------------------------------11-11-9-9--|
A|-----------------------------------------------------------------------------------|
E|-----------------------------------------------------------------------------------|

Verse:

e|---------------------------------------------------------------------------------|
B|---------------------------------------------------------------------------------|
G|---------------------------------------------------------------------------------|
D|--11-11-11-11-11-11-11-11-11-11-11-11-11-11-11-11-11-11-11-11-9-9-9-9-11-11-9-9--|
A|---------------------------------------------------------------------------------|
E|---------------------------------------------------------------------------------|

e|-----------------------------------------------------------------|
B|-----------------------------------------------------------------|
G|-----------------------------------------------------------------|
D|------------------------------------------------------9-9--------|
A|--7-7-7-7-7-7-7-7-7-7-7-7-7-7-7-7-7-7-7-7-11-11-11-11-----11-11--|
E|-----------------------------------------------------------------|


e|-------------------------------------------------------------------------------------|
B|-------------------------------------------------------------------------------------|
G|-------------------------------------------------------------------------------------|
D|--9-9-11-11-11-11-11-11-11-11-11-11-11-11-11-11-11-11-11-11-11-11-9-9-9-9-11-11-9-9--|
A|-------------------------------------------------------------------------------------|
E|-------------------------------------------------------------------------------------|

e|-------------------------------------------------|
B|-------------------------------------------------|
G|------------------------------------------8--11--|
D|------------------------------------------6--9---|
A|--7-7-7-7-7-7-7-7-7-7-7-7-7-7-7-7-7-7-7-7--------|
E|-------------------------------------------------|

Bridge:

e|------------------------------------------------------------|
B|------------------------------------------------------------|
G|------------------------------------------------------------|
D|--9------------------6-------7-------6---------------6------|
A|--7--7-7-7-7-9-7-7-7---7-7-7---7-7-7---7-7-7-9-7-7-7---7-7--|
E|------------------------------------------------------------|

e|--------------------------------------------------------------|--------|
B|--------------------------------------------------------------|--------|
G|--------------------------------------------------------------|--------|
D|--6--------------------------4--------------------------------|--4--4--|
A|--4--4-4-4-4-6-4-4-4-7-4-4-4---4-4-4-7-4-4-4-6-4-4-4-7-4-4-4--|--2--2--|
E|--------------------------------------------------------------|--------|

e|------------------------------------|--------|
B|------------------------------------|--------|
G|--6-6-------------------------------|--------|
D|--4-4----------2-2---------4-2------|--2--4--|
A|--------2-4----0-0--2-4----2-0-4----|--0--2--|
E|--------0-2--0------0-2--0-----2-0--|--------|

Chorus:

e|--------------------------------|
B|--------------------------------|
G|--------------------------------|
D|--6--------2--4--6--------4--2--|
A|--4--2--4--0--2--4--2--4--2--0--|
E|-----0--2-----------0--2--------|


************************************
Tap to rate this tab
# A B C D E F G H I J K L M N O P Q R S T U V W X Y Z