Song name
# A B C D E F G H I J K L M N O P Q R S T U V W X Y Z

Running Wild - Final Gates tab

Help us improve GuitareTab! Take a short survey!
                                                              final gates

                                                                 [ tabs ]

 Final Gates

 Transcription by erikgotborn@hotmail.com (erik gotborn)

 Taken from the album "Port Royal".

 Riff 1
 E ----------------------
 B ----------------------
 G ----------------------
 D -------7---------7----
 A --4----5----4----5--1-
 E --2---------2-------0-

 Riff 2
     <-3x->
 E --------------
 B --------------
 G --------------
 D -------7----7-
 A --4----5----5-
 E --2-----------
Related for Final Gates tab