Guitaretab - guitar tabs
Song name
# A B C D E F G H I J K L M N O P Q R S T U V W X Y Z

Running Wild - Mordor tab

                                                                   mordor

                                                                 [ tabs ]

 Mordor

 Transcription by erikgotborn@hotmail.com (erik gotborn)

 From the album "Ready for boarding".

 This song is mostley played with muted strings, and I havenít count
 how many times they play on every tone so you have to figure that out
 for yourself. But if you listen to the record it wonít be to difficult.

 Riff 1
 Guitar 1
 E --------------------------------------------------------------------
 B --------------------------------------------------------------------
 G --------------------------------------------------------------------
 D ----4-----------2---------------4-----------2-----2-4---5-4-2-------
 A 2-------5---4-5-----5-4-0---2-------5---4-5-----5-------------5-4-2-
 E --------------------------------------------------------------------
   x   x   x   x x x   x x x   x   x   x   x x x   x x x

 Guitar 2
 E --------------------------------------------------------------------
 B --------------------------------------------------------------------
 G --------------------------------------------------------------------
 D ----4-----------2-------1-1------4-----------2-----2-4---5-4-2------
 A 2-------5---4-5-----5-4-0-0--2-------5---4-5-----5-------------5-4-2
 E --------------------------------------------------------------------
   x   x   x   x x x   x x      x   x   x   x x x   x x x

 Riff 2
 E ------------------------------------------
 B ------------------------------------------
 G ------------------------------------------
 D --4----7--4-------------4----7--4---------
 A --2----5--2-------------2----5--2----5--7-
 E ---------------3-2-3-5---------------3--5-
     x       x             x       x    x  x
 E ---------------------------------------------
 B ---------------------------------------------
 G ---------------------------------------------
 D --4----7--4-------------4----7--4------------
 A --2----5--2-------------2----5--2------------
 E ---------------3-2-3-5---------------3-2-3-5-
     x       x             x       x

 Riff 3a
 E ----------------------------
 B ----------------------------
 G ----------------------------
 D --9--7-7-7-7-7-4--1-1-1-1-1-
 A --7--5-5-5-5-5-2--0-0-0-0-0-
 E ----------------------------
          x x x x      x x x x

 Riff 3b
 E ----------------------------------------------------
 B ----------------------------------------------------
 G ----------------------------------------------------
 D --9--7-7-7-7-7----x-9--x-9--x-9-x-9-----------------
 A --7--5-5-5-5-5-4--x-7--x-7--x-7-x-7-7-7-5-5-4-4-0-0-
 E ---------------2------------------------------------
          x x x x                      x x x x x x x x
[ Tab from: http://www.guitaretab.com/r/running-wild/43111.html ]
 Riff 4
 E ---------------------------------------------------------------
 B ---------------------------------------------------------------
 G ---------------------------------------------------------------
 D -------------------------------------------------------------1-
 A --0--2--4--0--2--0--0--2--4-------0--2--4--0--2--0--0--2--4--0-
 E -----------------------------2---------------------------------
     x  x  x  x  x  x  x  x  x  x    x  x  x  x  x  x  x  x  x  x

 Riff 5
 E ------------------------
 B ------------------------
 G ------------------------
 D --4---------------------
 A --2---------------------
 E -------3-2-3-5----3-2-3-
     x    x x x      x x x

 Riff 6a
 E -------------------------------
 B -------------------------------
 G -------------------------------
 D -------------------------------
 A --2----2--4--5-------0----5--4-
 E ----------------3--------------

 Riff 6b
 E -----------------------------------
 B -----------------------------------
 G -----------------------------------
 D --9----9--11--12--5----7----12--11-
 A -----------------------------------
 E -----------------------------------

 Riff 6c
 E ---------------------------------------
 B ---------------------------------------
 G --16----16--18--19--12----14----19--18-
 D ---------------------------------------
 A ---------------------------------------
 E ---------------------------------------

 Riff 6d
 E ----------------------------------------
 B -------------------------17--15--14-----
 G --16----16--18--19--12---------------16-
 D ----------------------------------------
 A ----------------------------------------
 E ----------------------------------------

 MORDOR
 Riff 1 x2
 Riff 2 x1
 In the centre of the empire of darkness
 Black fortress stands might and proud
 The shelter for the traced and tortured
 For the one who's damned
 A dragon is watching for fortress
 Black knights are controlling the land
 To save their proteges from torment
 They fight to defend

 Riff 3a x3
 Riff 3b x1
 Rancour, against all raiders
 Beware, if you're renegade's hunter
 Watch out in slough's haze
 Vigilance, 'cause death waits
 Recourse, to the traced
 Be calm, they'll give you shelter
 Restless, they fight for freedom
 Never, they don't let you fall

 Riff 1 x2
 Mordor

 Riff 2 x1
 A shoal of the knights of torture
 Are hunting a witch to the dell
 Sullen shades are raiding their squad
 Church's minions fell
 A black knight leads through the mire
 And in mordor she finds a new life
 A life without pain and torment
 No murder, no lies

 Riff 3a x3
 Riff 3b x1
 Rancour, against all raiders
 Beware, if you're renegade's hunter
 Watch out in slough's haze
 Vigilance, 'cause death waits
 Recourse, to the traced
 Be calm, they'll give you shelter
 Restless, they fight for freedom
 Never, they don't let you fall

 Riff 1 x2
 Mordor

 Riff 4 x2
 Riff 5 x4
 Riff 6a x2
 Riff 6b x2
 Riff 6c x3
 Riff 6d x1
Related for Mordor tab