Guitaretab - guitar tabs
Song name
# A B C D E F G H I J K L M N O P Q R S T U V W X Y Z

Running Wild - Gods Of Iron tab

                                                             gods of iron

                                                                 [ tabs ]

 Transcription by erikgotborn@hotmail.com (erik gotborn)

 Gods of Iron

 Taken from the album "Branded and Exiled".

 Some riffs are played with muted strings, and I havenít count how many
 times they play on every chord so you have to figure that out for
 yourself.

 Riff 1

 E ----
 B ----
 G ----
 D --4-
 A --2-
 E ----
     x

 Riff 2
 E -----------------------------------------------
 B -----------------------------------------------
 G ---------------------------------------------4-
 D --7--4-4----11--9--7--1---7--4-4----7--4--7----
 A --5--2-2-----9--7--5--0---5--2-2---------------
 E -----------------------------------------------
          x                       x

 Riff 3a
 E -----------------------
 B -----------------------
 G -----------------------
 D --4----7--1--4----1--1-
 A --2----5--0--2----0--0-
 E -----------------------
     x          x

 Riff 3b
 E -------------------------------------------------
 B -------------------------------------------------
 G -------------------------------------------------
 D --6----9--4--6----4--4---6----9--4--6----4--1--1-
 A --4----7--2--4----2--2---4----7--2--4----2--0--0-
 E -------------------------------------------------
     x          x           x          x    x

 Riff 4
 E ---------------------------------------------------
 B ---------------------------------------------------
 G ---------------------------------------------------
 D --4----7--4--1--4----1--4--4----7--4--1--4---------
 A --2----5--2--0--2----0--2--2----5--2--0--2----5--7-
 E ----------------------------------------------3--5-
[ Tab from: http://www.guitaretab.com/r/running-wild/43114.html ]
 Riff 5
 E -----------------------------------------------------------------
 B -----------------------------------------------------------------
 G ----------------------------------9--7--5--7--5--4---------------
 D --4----11--9--7--9--7--6--4---7---7--5--3--5--3--2--1-------1--4-
 A --2-----9--7--5--7--5--4--2---5---------------------0---4---0--2-
 E --------------------------------------------------------2--------
     x                           x

 Riff 6
 E ------------------------------------
 B ------------------------------------
 G ------------------------------------
 D --4-4-----1------1--7-7-----9--7--1-
 A --2-2-----0---4--0--5-5-----7--5--0-
 E --------------2---------------------
       x                 x

 Riff 7
 E ----
 B ----
 G ----
 D --4-
 A --2-
 E ----

 Gods of Iron

 Riff 1 x1
 Riff 2 x2
 Riff 3a x2
 Riff 3b x1
 Shrill screaming sirens are calling
 The branded victims to death
 A sacrifice to the gods of iron
 Everybody is joining the mass
 The blinded multitude is screaming
 The defenseless victim is killed
 Pools of blood are screaming
 The tribute to the gods is fulfilled

 Riff 2 x2
 Riff 3a x2
 Riff 3b x1
 Slavery to all are rebellious
 It's a venture if you resist
 Hu, challenged rulers of the universe
 All under their merciless fist
 But fight them as long as you can
 Or they hunt you until you are dead
 But stand up and fight for freedom
 So free the slaves from all dread

 Riff 4 x2
 Detain and destroy the gods of iron
 Fight them before it's too late
 Guard yourself from their defying
 Stand up and don't hesitate

 Riff 5 x2
 Riff 6 x4
 Riff 2 x2
 Riff 3a x2
 Riff 3b x1
 Shrill screaming sirens are calling
 The branded victims to death
 A sacrifice to the gods of iron
 Everybody is joining the mass
 The blinded multitude is screaming
 The defenseless victim is killed
 Pools of blood are screaming
 The tribute to the gods is fulfilled

 Riff 4 x4
 Detain and destroy the gods of iron
 Fight them before it's too late
 Guard yourself from their defying
 Stand up and don't hesitate
Related for Gods Of Iron tab