Guitaretab - guitar tabs
Song name
# A B C D E F G H I J K L M N O P Q R S T U V W X Y Z

Running Wild - Diabolic Force tab

                                                           diabolic force

                                                                 [ tabs ]

 Diabolic Force

 Transcription by erikgotborn@hotmail.com (erik gotborn)

 Taken from the album "Ready for boarding".

 Some parts of the riffs are played with muted strings, and itís not
 always transcribed, but in some places they are. That can be a little
 bit confusing, but if you listen to the record it wonít be too
 difficult.
 This song is not complete, a solo before riff 7a is not included.

 Riff 1
 E ------
 B ------
 G ------
 D --4---
 A --2---
 E ------

 Riff 2
 E ---------------------------------------
 B ---------------------------------------
 G ---------------------------------------
 D --4-4-4-4-4-11----7--9-9-9-9-9-9--6--1-
 A --2-2-2-2-2--9----5--7-7-7-7-7-7--4--0-
 E ---------------------------------------
       x x x x            x x x x x
 E ------------------------------------
 B ------------------------------------
 G ------------------------------------
 D --4-4-4-4-4-11---7--9-9-9-9-9-------
 A --2-2-2-2-2--9---5--7-7-7-7-7-------
 E -------------------------------5--3-
       x x x x           x x x x

 Riff 3
 E --------------------------------------
 B --------------------------------------
 G --------------------------------------
 D --1-------4-----7--1--4---4-4----7--1-
 A --0-------2-----5--0--2---2-2----5--0-
 E --------------------------------------
     x

 Riff 4
 E ---------------------------
 B ----------------------------
 G --11~~~~12--11--9--11--9--7-
 D ----------------------------
 A ----------------------------
 E ----------------------------

 Riff 5a
 E ----------------------------------------------------------------
 B ----------------------------------------------------------------
 G -------------------------------------------------------7--9(11)-
 D --4---------7------7-7-7-7-7-6--4---------7-7-7-7--11-----------
 A --2------4--5----0-5-5-5-5-5-4--2----4----5-5-5-5---9-----------
 E ---------2---------------------------2--------------------------
     x         x        x x x x    x         x x x x
[ Tab from: http://www.guitaretab.com/r/running-wild/43127.html ]
 Riff 5b
 E ------------------------------------------------------------
 B ------------------------------------------------------------
 G ------------------------------------------------------------
 D --4---------7------7-7-7-7-7-6--4---------7-7-7-7-7-7-7-7-7-
 A --2------4--5----0-5-5-5-5-5-4--2----4----5-5-5-5-5-5-5-5-5-
 E ---------2---------------------------2----------------------
     x         x        x x x x    x         x x x x   x x x x

 Riff 6a
 E -------------------------
 B -------------------------
 G -------------------------
 D --4----1-1-1--4----------
 A --2----0-0-0--2----4-4-4-
 E -------------------2-2-2-
     x           x

 Riff 6b
 E ---------------------------
 B ---------------------------
 G ---------------------------
 D --7-----------7---11-11-11-
 A --5----7-7-7--5----9--9--9-
 E -------5-5-5---------------
     x           x

 Riff 7a
 E -------------------------------------------------------
 B -------------------------------------------------------
 G ----------------------------9~---11--9-----------------
 D --9~---11--12--9~---11--12--------------12--11--12-----
 A ----------------------------------------------------12-
 E -------------------------------------------------------

 Riff 7b
 E ------------------------------12~---14--12--14--17--14--12-
 B --12~---14--15--12~---14--15-------------------------------
 G -----------------------------------------------------------
 D -----------------------------------------------------------
 A -----------------------------------------------------------
 E -----------------------------------------------------------

 Riff 8
 E -----------------
 B --12--3--7--5----
 G -----------------
 D ---------------4-
 A ---------------2-
 E -----------------

 DIABOLIC FORCE
 Riff 1 x1
 Riff 2 x2
 Riff 3 x2
 Scared up raven yells, in the cemetary darkness falls
 Smouldering firebowls, from eternity hell's usher howls
 Tonight

 The vault hears a fatal vow of the preacher veiled in a cowl
 He swears the righteous sovereign for an alliance to rouse the flame
 Tonight

 Riff 4 x1
 Riff 5a x1
 Diabolic force, occult enemy
 Diabolic force, live eternally

 Riff 6a x2
 Riff 6b x1
 Riff 6a x1
 Riff 2 x2
 Riff 3 x2
 He takes the wrought-iron cross, fulfilling the fiend's cause
 He breaks beyond's boundary, the fate's sealed on this cemetary
 Tonight

 The preacher bows his head, sinking he beats all the dread
 Falling in a black abyss, hearing the demon's hiss
 Tonight

 Riff 4 x1
 Riff 5b x1
 Diabolic force, occult enemy
 Diabolic force, live eternally

 Riff 2 x2
 Riff 3 x2
 The preacher bows his head, sinking he beats all the dread
 Falling in a black abyss, hearing the demon's hiss
 Tonight

 Vultures of death are flying, under their cry the evil's dying
 Destroying society of hate, like thunderstorms they bring their fate
 Tonight

 Riff 4 x1
 Riff 5b x1
 Diabolic force, occult enemy
 Diabolic force, live eternally
 Riff 7a x2
 Riff 7b x2
 Riff 8 x1
Related for Diabolic Force tab