Song name
# A B C D E F G H I J K L M N O P Q R S T U V W X Y Z

Running Wild - Black Demon tab

                          Running Wild - Black Demon
                       From the Album Gates To Purgatory
                                Copyright 1984

Transcribed by: Rob SamFerr (From Panama To The Metal World)

For Questions, Comments, Newest Version, or Corrections contact
me at robsamferr@yahoo.com

[.] - palm mute          /  - slide up to
 \  - slide down to      ~  - vibrato
 h  - hammer on          b  - bend
 p  - pull off           
                         ph - pinch harmonic
                         f  - full bend    h - half bend
                         r  - release      t - tap bend

Tune Gtr to A

--BLACK DEMON--

|Riff A|      [.]        ph              [.]
|--------------------------|----------------------------|
|--------------------------|----------------------------|
|--------------------------|----------------------------|
|------------------------6-|------------------------6---|
|-----4-----2-----0--------|------4-----2-----0-----4-7-|
|-2-2---2-2---2-2---2-2----|--2-2---2-2---2-2---2-2---5-|


|Riff B|      [.]                      [.]
|-------------------------|---------------------------|
|-------------------------|---------------------------|
|-------------------------|---------------------------|
|-------------------------|-----------------------6-2-|
|-4-4-4-4-4-4-4-4-------7-|-4-4-4-4-4-4-4-4-------4-0-|
|-2-2-2-2-2-2-2-2-2-0-2-5-|-2-2-2-2-2-2-2-2-2-0-2-----|

|-------------------------|----------------------------|
|-------------------------|----------------------------|
|-------------------------|----------------------------|
|-------------------------|------------------6-6---6-6-|
|-4-4-4-4-4-4-4-4-------7-|-4-4-4-4-4-4-4-4--4-4---4-4-|
|-2-2-2-2-2-2-2-2-2-0-2-5-|-2-2-2-2-2-2-2-2------------|


|Riff C|
|---------------------------------|----------------------------------------|
|---------------------------------|----------------------------------------|
|---------------------------------|----------------------------------------|
|-2----6-6-2----4-4------2-2------|-6-6-2----6-6-2----4-4------2-2---------|
|-0----4-4-0----2-2-4----0-0-4----|-4-4-0----4-4-0----2-2-4----0-0-4----2--|
|-------------------2--------2----|-----------------------2--------2----0--|

|Riff D|
|-----------------|
|-----------------|
|-----------------|
|----2-6-----2----|
|-4--0-4--4--0-2--|
|-2-------2----0--|

|Riff E|
|---------------------------|----------------------------|
|---------------------------|----------------------------|
|---------------------------|----------------------------|
|-----------------4-2-0-----|----------------------------|
|-4-4-4-4-4-4-4-4------4-2-0|-4-4-4-4-4-4-4-4-2-0------0-|
|-2-2-2-2-2-2-2-2-----------|-2-2-2-2-2-2-2-2----4-2-4---|

|-------|
|-------|
|-------|
|-4--2--|
|-2--0--|
|-------|

|Riff B Under Solo|

|Solo|
|-----------------------------------|---------------------|
|-----------------------------------|----------ph---------|
|-4b(6)-4b(6)--2h4p2---2------------|-9-9h11p9-11---------|
|--------------------4---4--0h2p0---|-------------7-9-7-6-|
|---------------------------------0-|---------------------|
|-----------------------------------|---------------------|

|-----------------------|------------------------|
|-----------------------|------------------------|
|-----------------------|---------ph---------6\9-|
|-----------------------|-7-7h9p7-9----6-7-9-----|
|-9h11p9-7h9p7-------ph-|-----------7-9----------|
|--------------7h9p7-5--|------------------------|

|--------------------------|
|-2p0---2-5-2--2-5-2-------|
|-----4-------4------4-----|
|----------------------4-4-|
|--------------------------|
|--------------------------|

[play this fast]
|-9-9-12-11-9-----------7-10-9-7----------5-9-7---------ph|
|-------------12-10-9-7----------10-9-7-5-------9-9p7-5-7-|
|---------------------------------------------------------|
|---------------------------------------------------------|
|---------------------------------------------------------|
|---------------------------------------------------------|

|-14-14h17p14-17\19-----------------|-----------------------|
|--------------------------------ph-|-5-5h7p5---------------|
|------------------------------9-11-|---------6h7p6---------|
|-------------------11b(12)-12------|---------------6h7p6---|
|-----------------------------------|---------------------4-|
|-----------------------------------|-----------------------|

Finish Song With
|-------|-------|
|-------|-------|
|-------|-------|
|-4--2--|-------|
|-2--0--|-2--4--|
|-------|-0--2--|
Tap to rate this tab
# A B C D E F G H I J K L M N O P Q R S T U V W X Y Z