Song name
# A B C D E F G H I J K L M N O P Q R S T U V W X Y Z

Running Wild - The Brotherhood tab

Running Wild - The Brotherhood (From album "The Brotherhood", 2002)
Written by Rolf Kasparek
Tab by Jon Malmin (jogusmal@hotmail.com)


Here is the acoustic (well, sort of) intro for Running Wild's masterful "The 
Two guitarists are needed to play this piece (And the rhythm guitar can be quite a challenge for 
fretboard hand, depending on your experience).


Gtr. 1
e|--------------2----2--0--|-------------0--2--4------|
B|--2-----2----------------|--------------------------|
G|-------------------------|--------------------------|
D|-------------------------|--------------------------|
A|-------------------------|--------------------------|
E|-------------------------|--------------------------|

Gtr. 2
e|-------------------------|--------------------------|
B|-------------------------|--------------------------|
G|--------4----------------|--4-----4-----------------|
D|-----6-----6-----4-------|-----6--------6--7--9-----|
A|--4--------------------7-|-----------7--------------|
E|--------------7-----7----|--------------------------|

Gtr. 1
e|--5----5------4--0-----2-|---------------------------|
B|--------------------0----|-----------------5--4--5---|
G|-------------------------|---------------------------|
D|-------------------------|---------------------------|
A|-------------------------|---------------------------|
E|-------------------------|---------------------------|

Gtr. 2
e|-------------------------|--------------------------|
B|-------------------------|--------------------------|
G|--6--------6--4----------|--4-----------------------|
D|-----7-----------6-----4-|-----4-----4--------4-----|
A|--------7-----------7----|--------6-----------------|
E|-------------------------|--------------7--7-----7--|


Just play this x4 and maybe add some drills to the melody guitar during the 2nd and 4th 
if you feel like it.
Good luck!
Tap to rate this tab
 
# A B C D E F G H I J K L M N O P Q R S T U V W X Y Z