Song name
# A B C D E F G H I J K L M N O P Q R S T U V W X Y Z

Running With Midgets - Hey Baby tab

		Hey Baby- Running With Midgets
-------------------------------------------------------------------------------

This song was written by the guitarist from RWM for his wonderful girlfriend Ayesha Siddiqui

intro:(to main chords used strum first one and second one 8 times each
e|---------------------------------------------------------------------------|
B|---------------------------------------------------------------------------|
G|-4--4----------------------------------------------------------------------|
D|-2--2----------------------------------------------------------------------|
A|----2----------------------------------------------------------------------|
E|---------------------------------------------------------------------------|
verse:same thing as intro
e|---------------------------------------------------------------------------|
B|---------------------------------------------------------------------------|
G|--4--4---------------------------------------------------------------------|
D|--2--2---------------------------------------------------------------------|
A|-----2---------------------------------------------------------------------|
E|---------------------------------------------------------------------------|

pre-chorus:
e|---------------------------------------------------------------------------|
B|---------------------------------------------------------------------------|
G|-4-------------------------------------------------------------------------|
D|-2--6--4-------------------------------------------------------------------|
A|----4--2--4--7-------------------------------------------------------------|
E|----------2--5-------------------------------------------------------------|

chorus:
e|---------------------------------------------------------------------------|
B|---------------------------------------------------------------------------|
G|---------------------------------------------------------------------------|
D|----6--4-------------------------------------------------------------------|
A|-7--4--2--4/---------------------------------------------------------------|
E|-5--------2/---------------------------------------------------------------|
Tap to rate this tab
# A B C D E F G H I J K L M N O P Q R S T U V W X Y Z