Song name
# A B C D E F G H I J K L M N O P Q R S T U V W X Y Z

Runrig - In Scandinavia tab

Song: In Scandinavia
Band: Runrig
Album: Everything You See
Tuning: Standard


**Capo 4th Fret**


I have not got round to tabbing the solo for this song but here is the main
picking part.  I have tried to tab all the variations in the picking but
you can pick it almost any way you want once you know the chords.


Intro:
(Play twice)

    Em(G#m)							     Em(G#m)
e|-----------3-----------0------------------------|-----------------------0------------------------|
B|--------0--------0--------------------------3--0|-----------3--------------------------------3--0|
G|-----0--------------0--------------------0------|--------0--------0-----------------------0------|
D|--------------------------------------2---------|-----2--------------2-----------------2---------|
A|------------------------------------------------|------------------------------------------------|
E|--0-----------0-----------0---------------------|--0-----------0-----------0---------------------|
											
e|------------<12>--------------------------------|------------------------------------------------|
B|------------------------<12>--------------------|------------------------<12>--------------------|
G|------------------------------------------------|-------------<7>--------------------------------|
D|------------------------------------------------|------------------------------------------------|
A|------------------------------------------------|------------------------------------------------|
E|------------------------------------------------|------------------------------------------------|


Verse 1:

    Em(G#m)                 G(B)                     D(F#)                   Em(G#m)
e|-----------0-----------------------3------------|-----------2-----------------------0------------|
B|-----------------------------------------0-----0|-----------------3-----3-----------------0------|
G|-----------------0-----0--------0-----------0---|--------2-----------2-----------0---------------|
D|--------2-----------2---------------------------|--0---------------------------------------------|
A|------------------------------------------------|-------------------------------------------0h2--|
E|--0-----------------------3---------------------|--------------------------0--------------------0|

                Em    D/F#
e|------------------------|
B|------------------------|
G|--------------0-----2---|
D|-----------------2-----0|
A|------------------------|
E|--------------0-----2---|

    G(B)                    D(F#)                    Am(C#m)
e|-----------3-----------------------2------------|------------------------------------------------|
B|--0--------------0-----0-----------------3-----3|--------------0h1--------------------0h1p0------|
G|--------0-----------0-----------2-----------2---|-----------2--------2--------------2--------2---|
D|--------------------------0---------------------|--------2--------------2--------2--------------2|
A|------------------------------------------------|--0-----------------------0---------------------|
E|--3---------------------------------------------|------------------------------------------------|

    Em(G#m)                 G(B)                     D(F#)                   Em(G#m)
e|-----------0-----------------------3------------|-----------2----0h2p0--------------0------------|
B|-----------------------------------------0-----0|---------------------3--------------------------|
G|-----------------0-----0--------0-----------0---|--------2--------------2--------------------0---|
D|--------2-----------2---------------------------|--0-----------------------------2--------2------|
A|------------------------------------------------|-------------------------------------0h2--------|
E|--0-----------------------3---------------------|--------------------------0--------------------0|

                Em    D/F#
e|------------------------|
B|------------------------|
G|--------------0-----2---|
D|-----------------2-----0|
A|------------------------|
E|--------------0-----2---|

    G(B)                    D(F#)                    Am(C#m)
e|-----------3-----------------------2------------|-----------5-----------------------5------------|
B|--0--------------0-----0-----------------3-----3|--------5------------5-------------------5------|
G|--------0-----------0-----------2-----------2---|-----5--------------------------5---------------|
D|--------------------------0---------------------|------------------------------------------------|
A|------------------------------------------------|-------------------------5h7--------------------|
E|--3---------------------------------------------|--5---------------------------------------------|


Chorus 1:

    C(E)                    Dsus2(F#sus2)            Em(G#m)
e|-----------0------------------------------------|-----------0------------------------------------|
B|-----------------------------------3------------|-----------------0------------------------------|
G|--------0--------0-----0-----2-----------2-----2|------------------------------------------------|
D|-----2--------------2-----0-----0-----------0---|--------2---------------------------------------|
A|--3---------------------------------------------|--------------------0h2----------------0h2--2---|
E|------------------------------------------------|--0-----------------------0---------------------|

    C(E)                    Dsus2(F#sus2)            Em(G#m)
e|-----------0------------------------------------|-----------0------------------------------------|
B|-----------------------------------------3------|------------------------------------------------|
G|--------0--------0-----0--------------2-----2---|-----------------------0-----------------------0|
D|-----2--------------2-----0--------0-----------0|--------2-----------2-----------------------2---|
A|--3---------------------------------------------|--------------0h2---------------------0h2-------|
E|------------------------------------------------|--0-----------------------0---------------------|

    C(E)                    Dsus2(F#sus2)            Em(G#m)
e|-----------0------------------------------------|------------------------<12>--------------------|
B|-----------------------------------------3------|------------------<12>--<12>--------------------|
G|--------0--------0-----0--------------2-----2---|------------<12>--------<12>--------------------|
D|-----2--------------2-----0--------0-----------0|------------------------------------------------|
A|--3---------------------------------------------|------------------------------------------------|
E|------------------------------------------------|--0---------------------------------------------|


Verse 2:

    Em(G#m)                 G(B)                     D(F#)                   Em(G#m)
e|-----------0-----------------------3------------|-----------2----0h2p0--------------0------------|
B|-----------------------------------------0-----0|---------------------3-------------------0------|
G|-----------------0-----0--------0-----------0---|--------2--------------2--------0---------------|
D|--------2-----------2---------------------------|--0---------------------------------------------|
A|------------------------------------------------|-------------------------------------------0h2--|
E|--0-----------------------3---------------------|--------------------------0--------------------0|

                Em    D/F#
e|------------------------|
B|------------------------|
G|--------------0-----2---|
D|-----------------2-----0|
A|------------------------|
E|--------------0-----2---|


    G(B)                    D(F#)                    Am(C#m)
e|-----------3-----------------------2------------|------------------------------------------------|
B|--0--------------0-----0-----------------3-----3|--------------0h1--------------------0h1p0------|
G|--------0-----------0-----------2-----------2---|-----------2--------2--------------2--------2---|
D|--------------------------0---------------------|--------2--------------2--------2--------------2|
A|------------------------------------------------|--0-----------------------0---------------------|
E|--3---------------------------------------------|------------------------------------------------|

    Em(G#m)                 G(B)                     D(F#)                   Em(G#m)
e|-----------0-----------------------3------------|-----------2-----------------------0------------|
B|-----------------------------------------0-----0|-----------------3-----3-----------------0------|
G|-----------------0-----0--------0-----------0---|--------2-----------2-----------0---------------|
D|--------2-----------2---------------------------|--0---------------------------------------------|
A|------------------------------------------------|-------------------------------------------0h2--|
E|--0-----------------------3---------------------|--------------------------0--------------------0|

                Em    D/F#
e|------------------------|
B|------------------------|
G|--------------0-----2---|
D|-----------------2-----0|
A|------------------------|
E|--------------0-----2---|

    G(B)                    D(F#)                    Am(C#m)
e|-----------3-----------------------2------------|-----------5-----------------------5------------|
B|--0--------------0-----0-----------------3-----3|--------5------------5-------------------5------|
G|--------0-----------0-----------2-----------2---|-----5--------------------------5---------------|
D|--------------------------0---------------------|------------------------------------------------|
A|------------------------------------------------|-------------------------5h7--------------------|
E|--3---------------------------------------------|--5---------------------------------------------|


Chorus 2:

    C(E)                    Dsus2(F#sus2)            Em(G#m)
e|-----------0------------------------------------|-----------0------------------------------------|
B|-----------------------------------------3------|-----------------0------------------------------|
G|--------0--------0-----0--------------2-----2---|------------------------------------------------|
D|-----2--------------2-----0--------0-----------0|--------2-----------------------------------0h2-|
A|--3---------------------------------------------|--------------------0h2----------------0h2------|
E|------------------------------------------------|--0-----------------------0---------------------|

    C(E)                    Dsus2(F#sus2)            Em(G#m)
e|-----------0------------------------------------|-----------0------------------------------------|
B|-----------------------------------------3------|------------------------------------------------|
G|--------0--------0-----0--------------2-----2---|--------0--------0-----------------0-----------0|
D|-----2--------------2-----0--------0-----------0|-----2--------------2-----------2-----------2---|
A|--3---------------------------------------------|-----------------------2--------------0h2-------|
E|------------------------------------------------|--0-----------------------0---------------------|

    C(E)                    Dsus2(F#sus2)            Em(G#m)
e|-----------0------------------------------------|-----------------0------------------------------|
B|-----------------------------------------3------|--------------------0-----------0---------------|
G|--------0--------0-----0--------------2-----2---|------------2/4--------------0------------------|
D|-----2--------------2-----0--------0-----------0|--------2---------------0h2--------2------------|
A|--3---------------------------------------------|--------------------------------------------0h2-|
E|------------------------------------------------|--0---------------------------------------------|

    C(E)                    Dsus2(F#sus2)            Em(G#m)
e|-----------0-----------------------0------------|-----------0------------------------------------|
B|-----------------------------------------3-----3|-----------------0------------------------------|
G|--------0--------0-----0--------2-----------2---|-----------------------------------0-----------0|
D|-----2--------------2-----0---------------------|--------2-----------------------2-----------2---|
A|--3---------------------------------------------|--------------------0h2----------------0h2------|
E|------------------------------------------------|--0-----------------------0---------------------|


Solo:
(Play twice with the harmonics from the intro, then repeat as necessary)

    C(E)                    Dsus2(F#sus2)            Em(G#m)
e|-----------0------------------------------------|-----------0------------------------------------|
B|-----------------------------------------3------|-----------------0------------------------------|
G|--------0--------0-----0--------------2-----2---|------------------------------------------------|
D|-----2--------------2-----0--------0-----------0|--------2-----------------------------------0h2-|
A|--3---------------------------------------------|--------------------0h2----------------0h2------|
E|------------------------------------------------|--0-----------------------0---------------------|

    C(E)                    Dsus2(F#sus2)            Em(G#m)
e|-----------0-----------------------0------------|-----------0------------------------------------|
B|-----------------------------------------3-----3|-----------------0------------------------------|
G|--------0--------0-----0--------2-----------2---|-----------------------------------0-----------0|
D|-----2--------------2-----0---------------------|--------2-----------------------2-----------2---|
A|--3---------------------------------------------|--------------------0h2----------------0h2------|
E|------------------------------------------------|--0-----------------------0---------------------|


Outro:

    C(E)                    Dsus2(F#sus2)            Em(G#m)
e|-----------0------------------------------------|-----------0------------------------------------|
B|-----------------------------------------3------|-----------------0------------------------------|
G|--------0--------0-----0--------------2-----2---|------------------------------------------------|
D|-----2--------------2-----0--------0-----------0|--------2-----------------------------------0h2-|
A|--3---------------------------------------------|--------------------0h2----------------0h2------|
E|------------------------------------------------|--0-----------------------0---------------------|

    C(E)                    Dsus2(F#sus2)            Em(G#m)
e|-----------0-----------------------0------------|-----------0------------------------------------|
B|-----------------------------------------3-----3|-----------------0------------------------------|
G|--------0--------0-----0--------2-----------2---|-----------------------------------0-----------0|
D|-----2--------------2-----0---------------------|--------2-----------------------2-----------2---|
A|--3---------------------------------------------|--------------------0h2----------------0h2------|
E|------------------------------------------------|--0-----------------------0---------------------|

    C(E)                    Dsus2(F#sus2)            Em(G#m)
e|------------------------------------------------|-----------------------------------<12>---------|
B|--1-^---------------------3-^-------------------|-----------------------<12>---------------------|
G|--0-/---------------------2-\-------------------|-----------<12>---------------------------------|
D|--2-\---------------------0-/-------------------|------------------------------------------------|
A|--3-/-------------------------------------------|------------------------------------------------|
E|------------------------------------------------|<12>--------------------------------------------|

Enjoy.
Tap to rate this tab
 
# A B C D E F G H I J K L M N O P Q R S T U V W X Y Z