Song name
# A B C D E F G H I J K L M N O P Q R S T U V W X Y Z

Runrig - Solus Na Madainn tab

Runrig - Solus Na Madainn (The Morning Light)

I tabbed this from the version on Runrig's Access All Areas album. It's a nice 
sing to have on the guitar even without the accordian in the background.



e|------------------------------------------------------------------------|
B|--/7~---/7-5~-----3h5-3------------3--3h5---3h5p3-3---3h5--3---10~------|
G|-----4-------2~---------0--2-2h4----------------------------------------|
D|------------------------------------------------------------------------|
A|------------------------------------------------------------------------|
E|------------------------------------------------------------------------|

e|--------------------------------------------------------5-3-2p0---------|
B|--7h8-8p7--3--3h5-5p3------------------------3--2h3p2------------5-5/7--|
G|------------------------4--2-2---2--2h4-4p2----------4------------------|
D|------------------------------------------------------------------------|
A|------------------------------------------------------------------------|
E|------------------------------------------------------------------------|

e|------------------------------------------------------------------------|
B|-----------------3-2h3p2----5/7--7\5--3---------------------------------|
G|---2--2h4--4p2----------4----------------4--2---------------------------|
D|------------------------------------------------------------------------|
A|------------------------------------------------------------------------|
E|------------------------------------------------------------------------|
Repeat This as many times as you like then:

Outro:
e|------------------------------------------------------------------------|
B|--/7~---/7-5~-----3h5-3-------------3--3h5---3h5p3-3---3h5-3--10~-------|
G|-----4-------2~----------0---2-2h4--------------------------------------|
D|------------------------------------------------------------------------|
A|------------------------------------------------------------------------|
E|------------------------------------------------------------------------|

e|-------------------------------------------------------------------------|
B|-----7h8-8p7---3-------8~---7--7\5---3-----------------------------------|
G|-------------------------------------------------------------------------|
D|-------------------------------------------------------------------------|
A|-------------------------------------------------------------------------|
E|-------------------------------------------------------------------------|

Enjoy!
************************************

| /   slide up
| \   slide down
| h   hammer-on
| p   pull-off
| ~   vibrato
| +   harmonic
| x   Mute note
| b   Bend
| pb  Pre-bend
| br  Bend release
| pbr Pre-bend release
| brb Bend release bend

Tap to rate this tab
 
# A B C D E F G H I J K L M N O P Q R S T U V W X Y Z