Song name
# A B C D E F G H I J K L M N O P Q R S T U V W X Y Z

Runrig - Maymorning chords

Highlighted       Show chord diagrams
A great Runrig song from the 'In Search of Angels' album.

This song is quite a tricky one to match chords to so you need to listen to the song to 
get the timing right, especially for the descending bass notes played through the verse.

Capo - 2nd fret

Intro riff:

e|--------------------------------------------------------|
B|--------------------------------------------------------|
G|-0-2-4---5-5--4-4--2-2--0-2-4--2-0----------------------|
D|------------------------------------2----0---2-0--------|
A|---------------------------------------3----------------|
E|--------------------------------------------------------|

e|--------------------------------------------------------|
B|--------------------------------------------------------|
G|-0-2-4---5-5--4-4--2-2--4--2-0--------------------------|
D|--------------------------------2---0--0---0------------|
A|--------------------------------------------------------|
E|--------------------------------------------------------|



Pre-Intro: G, G, G, G

Intro: (play over intro riff)

Em, C, G, D, G, C, Am, D
Em, C, G, D, Em, C, D, D


G     G/F#    Em       D     C   
C/B  Am
I'm alive again on a Maymorning
G        G/F#       Em
Going to wipe the slate clean
C          Am    C   D
Follow my dreams
G         G/F#   Em       D     C    
C/B   Am
All the yearning buds are here again
C                         D
With the the promise of a new life to come
C          D     G
Spring is here again


(Intro chords)


(Verse 2)
(Intro chords)


Bridge (where the strings play):  G, C, D, G, 
C, G, D, G

(Verse 3)


Outro:
     G      C   G   C
I'm alive again
     G      C   G   C
I'm alive again
     G          C          G      C
I'm alive, I'm alive, I'm alive again
     G           C         G      C
I'm alive, I'm alive, I'm alive again

(intro chords to finish)




Lyrics
The sun is melting over the hills
All our roads are waiting
To be revealed
For this in history has brought us to here
Now it's all there for the taking
The day is what you see


The light's returning, the work is in hand
All the cynics have vanished
From where we stand
All the chances wasted are drawing me near
And all around there's new life rising
From the winter fields

I'm alive again
I'm alive again
Tap to rate this tab
 
# A B C D E F G H I J K L M N O P Q R S T U V W X Y Z