Song name
# A B C D E F G H I J K L M N O P Q R S T U V W X Y Z

Runrig - Canada tab

Help us improve GuitareTab! Take a short survey!
Song: Canada
Artist: Runrig
Tabbed by: bass_nutter

Solo bit - This may not be in the right key but you get the idea!

E--0--2--3--2--3--(slide up)5--3--2--0---------------5-5-3-2--|
B---------------------------------------3-0h3(trem)-----------|
G-------------------------------------------------------------|
D-------------------------------------------------------------|
A-------------------------------------------------------------|
E-------------------------------------------------------------|

E--0--2--3--2--3--(slide up)5--3-2-3-5-5-----5--5-7-5-3-------|
B-----------------------------------------3-------------------|
G-------------------------------------------------------------|
D-------------------------------------------------------------|
A-------------------------------------------------------------|
E-------------------------------------------------------------|

Chorus bit:
E--0--7----7-5h7--0--7--0--0------------0--3-(slide up to)5---|
B-----------------------------3-0h3--3------------------------|
G-------------------------------------------------------------|
D-------------------------------------------------------------|
A-------------------------------------------------------------|
E-------------------------------------------------------------|

This is a beautiful solo- so play it well!!!!
bass_nutter@hotmail.com
Related for Canada tab