Song name
# A B C D E F G H I J K L M N O P Q R S T U V W X Y Z

Ruoska - Isan Kadesta tab

Ruoska - ISÄN KADESTÄ
http://www.ruoska.net
http://www.myspace.com/ruoskaband

d||-------------------------------|
A||-------------------------------|
F||-------------------------------|
C||-------------------------------| x4
G||--0-0-0--0-0-0--0-0-0-0-0-0-0--|
C||--0-0-0--0-0-0--0-0-0-0-0-0-0--|
     pm.........................]

d||-------|--------|-------|--------|-------|--------|-------|-------|
A||-------|--------|-------|--------|-------|--------|-------|-------|
F||-------|--------|-------|--------|-------|--------|-------|-------|
C||--5----|--8--3--|--5----|--8--0--|--5----|--8--3--|--1----|--0----|
G||--5----|--8--3--|--5----|--8--0--|--5----|--8--3--|--1----|--0----|
C||--5----|--8--3--|--5----|--8--0--|--5----|--8--3--|--1----|--0----|

d||-------------------------------|
A||-------------------------------|
F||-------------------------------|
C||-------------------------------| x2
G||--7-7-7--7-7-7--7-7-7-7-7-7-7--|
C||--7-7-7--7-7-7--7-7-7-7-7-7-7--|
     pm.........................]

d||-------------------------------|-------------------------------|
A||-------------------------------|-------------------------------|
F||-------------------------------|-------------------------------|
C||-------------------------------|-------------------------------|
G||--8-8-8--8-8-8--8-8-8-8-8-8-8--|--7-7-7--7-7-7--3-3-3-3-3-3-3--|
C||--8-8-8--8-8-8--8-8-8-8-8-8-8--|--7-7-7--7-7-7--3-3-3-3-3-3-3--|
     pm.........................................................]

d||-------------------------------|
A||-------------------------------|
F||-------------------------------|
C||-------------------------------| x2
G||--7-7-7--7-7-7--7-7-7-7-7-7-7--|
C||--7-7-7--7-7-7--7-7-7-7-7-7-7--|
     pm.........................]

d||-------------------------------|--------|
A||-------------------------------|--------|
F||-------------------------------|--------|
C||-------------------------------|--10----|
G||--8-8-8--8-8-8--8-8-8-8-8-8-8--|--10----|
C||--8-8-8--8-8-8--8-8-8-8-8-8-8--|--10----|
     pm.........................]

d||-------|--------|-------|--------|-------|--------|-------|-------|
A||-------|--------|-------|--------|-------|--------|-------|-------|
F||-------|--------|-------|--------|-------|--------|-------|-------|
C||--5----|--8--3--|--5----|--8--0--|--5----|--8--3--|--1----|--0----|
G||--5----|--8--3--|--5----|--8--0--|--5----|--8--3--|--1----|--0----|
C||--5----|--8--3--|--5----|--8--0--|--5----|--8--3--|--1----|--0----|

d||-------------------------------|
A||-------------------------------|
F||-------------------------------|
C||-------------------------------| x2
G||--7-7-7--7-7-7--7-7-7-7-7-7-7--|
C||--7-7-7--7-7-7--7-7-7-7-7-7-7--|
     pm.........................]

d||-------------------------------|-------------------------------|
A||-------------------------------|-------------------------------|
F||-------------------------------|-------------------------------|
C||-------------------------------|-------------------------------|
G||--8-8-8--8-8-8--8-8-8-8-8-8-8--|--7-7-7--7-7-7--3-3-3-3-3-3-3--|
C||--8-8-8--8-8-8--8-8-8-8-8-8-8--|--7-7-7--7-7-7--3-3-3-3-3-3-3--|
     pm.........................................................]

d||-------------------------------|
A||-------------------------------|
F||-------------------------------|
C||-------------------------------| x2
G||--7-7-7--7-7-7--7-7-7-7-7-7-7--|
C||--7-7-7--7-7-7--7-7-7-7-7-7-7--|
     pm.........................]

d||-------------------------------|--------|
A||-------------------------------|--------|
F||-------------------------------|--------|
C||-------------------------------|--10----|
G||--8-8-8--8-8-8--8-8-8-8-8-8-8--|--10----|
C||--8-8-8--8-8-8--8-8-8-8-8-8-8--|--10----|
     pm.........................]

d||-------|--------|-------|--------|-------|--------|-------|-------|
A||-------|--------|-------|--------|-------|--------|-------|-------|
F||-------|--------|-------|--------|-------|--------|-------|-------|
C||--5----|--8--3--|--5----|--8--0--|--5----|--8--3--|--1----|--0----| x2
G||--5----|--8--3--|--5----|--8--0--|--5----|--8--3--|--1----|--0----|
C||--5----|--8--3--|--5----|--8--0--|--5----|--8--3--|--1----|--0----|

d||-------|---------|-------|---------|-------|---------|-------|-------|
A||-------|---------|-------|---------|-------|---------|-------|-------|
F||-------|---------|-------|---------|-------|---------|-------|-------|
C||--7----|--10--5--|--7----|--10--2--|--7----|--10--5--|--3----|--2----| x2
G||--7----|--10--5--|--7----|--10--2--|--7----|--10--5--|--3----|--2----|
C||--7----|--10--5--|--7----|--10--2--|--7----|--10--5--|--3----|--2----|
Tap to rate this tab
# A B C D E F G H I J K L M N O P Q R S T U V W X Y Z