Guitaretab - guitar tabs
Song name
# A B C D E F G H I J K L M N O P Q R S T U V W X Y Z

Ruoska - Taivas Palaa tab

Artist:Ruoska
Song:Taivas Palaa
Album:Amortem

Tuning:Drop C (CGCFAD)

riff A:
D-------------------------------------------|
A-------------------------------------------|
F-------------------------------------------|
C-------------------------------------------|
G-------------------------------------------|
C--10010010010050301001001001006535---------|

riff B:
D------------------------------------------------------------|
A------------------------------------------------------------|
F------------------------------------------------------------|
C-------------------------------------------555555555555-6-6-|
G--000--000--000--000--000--000--000--000---555555555555-6-6-|
C--000--000--000--000--000--000--000--000---555555555555-6-6-|
 PM...  ...  ...  ...  ...  ...  ...  ...
[ Tab from: http://www.guitaretab.com/r/ruoska/105929.html ]
riff C (chorus):
D---------------------------------------------------------|
A---------------------------------------------------------|
F---------------------------------------------------------|
C--5-------------8-------------12-------------12-13-12-10-|
G--5(many times)-8(many times)-12(many times)-12-13-12-10-|
C--5-------------8-------------12-------------12-13-12-10-|

                     X3 and then:
D--------------------------------------------------------|
A--------------------------------------------------------|
F--------------------------------------------------------|
C--5-------------8-------------12------------------------|
G--5(many times)-8(many times)-12(many times)------------|
C--5-------------8-------------12------------------------|

riff D:
D------------------------------------------------------------|
A------------------------------------------------------------|
F------------------------------------------------------------|
C------------------------------------------------------------|
G------------------------------------------------------------|
C--10010010010050301001001001006535-100100100100503010010010-|

riff A X4
riff B
riff A X2
riff C
riff A X2
riff B
riff A X2
riff C
riff D
riff C
riff A X4

ends on:
D-----
A-----
F-----
C--0--
G--0--
C--0--
Related for Taivas Palaa tab
×
Taivas Palaa