Guitaretab - guitar tabs
Song name
# A B C D E F G H I J K L M N O P Q R S T U V W X Y Z

Ruoska - Pure Minua tab

RUOSKA
"Pure Minua"

RIFF #1:
||-----------|-----------|-----------|-----------||
||-----------|-----------|-----------|-----------||
||*----------|--3--------|--5--------|----------*||
||*-5--------|--3--------|--5--------|--3-------*||
||--5--------|--1--------|--3--------|--3--------||
||--5--------|-----------|-----------|--3--------||

RIFF #2:
||--------------------||
||--------------------||
||*------------------*||
||*------------------*||
||----5--5----5--5----||
||----5--5----5--5----||
PM    .  .    .  . ]

RIFF #3:
||--------------------------|-----------||
||--------------------------|-----------||
||--------------------------|-----------||
||--------------------------|-----------||
||--------------------------|-----------||
||--1--1--1--1--1--1--1--1--|--0--------||
[ Tab from: http://www.guitaretab.com/r/ruoska/187736.html ]
RIFF #4:
||--------------------------|--------------------------|--------------------------|
||--------------------------|--------------------------|--------------------------|
||*------------------------*|*------------------------*|--------------------------|
||*------------------------*|*-3--3--3--3--3--3--3--3-*|--5--5--5--5--5--5--5--5--|
||--5--5--5--5--5--5--5--5--|--1--1--1--1--1--1--1--1--|--3--3--3--3--3--3--3--3--|
||--5--5--5--5--5--5--5--5--|--------------------------|--------------------------|
PM  .  .  .  .  .  .  .  .     .  .  .  .  .  .  .  .     .  .  .  .  .  .  .  . ]

|--------------------------|--------------------------|--------------------------||
|--------------------------|--------------------------|--------------------------||
|--------------------------|--------------------------|--------------------------||
|--------------------------|--------------------------|--------------------------||
|--3--3--3--3--3--3--3--3--|--5--5--5--5--5--5--5--5--|--5--5--5--5--5--5--5--5--||
|--3--3--3--3--3--3--3--3--|--5--5--5--5--5--5--5--5--|--5--5--5--5--5--5--5--5--||
PM .  .  .  .  .  .  .  .     .  .  .  .  .  .  .  .     .  . ]
Related for Pure Minua tab
Advertisement will be closed in 10 seconds