Song name
# A B C D E F G H I J K L M N O P Q R S T U V W X Y Z

Ruoska - Valtaa Vakivaltaa tab

Hi heres my tab form "Valtaa Väkivaltaa. Tuning is Drop D

*=PM

0:00
E-----------------------------------------------------------------|
B-----------------------------------------------------------------|
G-----------------------------------------------------------------| repeat
D-----------------------------------------------------------------|   4 x
A-5-5-5-5-5-5-6-8-6-5-5-5-5-5-5-8-6-6-5-5-5-5-5-5-5-6-6-6-8-8-8-8-|
D-5-5-5-5-5-5-6-8-6-5-5-5-5-5-5-8-6-6-5-5-5-5-5-5-5-6-6-6-8-8-8-8-|

0:27
E--------|
B--------|
G--------|No guitar
D--------|
A--------|
D--------|

0:40 Verse
E-----------------------------------------------------------------|
B-----------------------------------------------------------------|
G-----------------------------------------------------------------| repeat
D-----------------------------------------------------------------|  2 x
A-----------------------------------------------------------------|
D-5-5-5-5-5-5-5-5-6-6-6-6-6-6-6-6-8-8-8-8-8-8-8-8-6-6-6-6-6-6-6-6-|
  * * * * * * * * * * * * * * * * * * * * * * * * * * * * * * * *
At 2th time the 6-6-6-6-6-6-6-6 not in pm.

0:54 Chorus
E-----------------------------------------------------------------|
B-----------------------------------------------------------------|
G-----------------------------------------------------------------| repeat
D-----------------------------------------------------------------|   2 x
A-5-5-5-5-5-5-6-8-6-5-5-5-5-5-5-8-6-6-5-5-5-5-5-5-5-6-6-6-8-8-8-8-|
D-5-5-5-5-5-5-6-8-6-5-5-5-5-5-5-8-6-6-5-5-5-5-5-5-5-6-6-6-8-8-8-8-|

1:08 Verse
E-----------------------------------------------------------------|
B-----------------------------------------------------------------|
G-----------------------------------------------------------------| repeat
D-----------------------------------------------------------------|  4 x
A-----------------------------------------------------------------|
D-5-5-5-5-5-5-5-5-6-6-6-6-6-6-6-6-8-8-8-8-8-8-8-8-6-6-6-6-6-6-6-6-|
  * * * * * * * * * * * * * * * * * * * * * * * * * * * * * * * *
At 4th time the 6-6-6-6-6-6-6-6 not in pm.

1:34 Chorus
E-----------------------------------------------------------------|
B-----------------------------------------------------------------|
G-----------------------------------------------------------------| repeat
D-----------------------------------------------------------------|   4 x
A-5-5-5-5-5-5-6-8-6-5-5-5-5-5-5-8-6-6-5-5-5-5-5-5-5-6-6-6-8-8-8-8-|
D-5-5-5-5-5-5-6-8-6-5-5-5-5-5-5-8-6-6-5-5-5-5-5-5-5-6-6-6-8-8-8-8-|

2:03
E--------|
B--------|
G--------|No guitar
D--------|
A--------|
D--------|

1:34
E-----------------------------------------------------------------|
B-----------------------------------------------------------------|
G-----------------------------------------------------------------| repeat
D-----------------------------------------------------------------|   4 x
A-5-5-5-5-5-5-6-8-6-5-5-5-5-5-5-8-6-6-5-5-5-5-5-5-5-6-6-6-8-8-8-8-|
D-5-5-5-5-5-5-6-8-6-5-5-5-5-5-5-8-6-6-5-5-5-5-5-5-5-6-6-6-8-8-8-8-|

2:03
E-----------------------------------------------------------------|
B-----------------------------------------------------------------|
G-----------------------------------------------------------------| repeat
D-----------------------------------------------------------------|   2 x
A-5-5-5-5-5-5-6-8-6-5-5-5-5-5-5-8-6-6-5-5-5-5-5-5-5-6-6-6-8-8-8-8-|
D-5-5-5-5-5-5-6-8-6-5-5-5-5-5-5-8-6-6-5-5-5-5-5-5-5-6-6-6-8-8-8-8-|
  * * * * * * * * * * * * * * * * * * * * * * * * * * * * * * * *

2:16 Chorus
E-----------------------------------------------------------------|
B-----------------------------------------------------------------|
G-----------------------------------------------------------------| repeat
D-----------------------------------------------------------------|   6 x
A-5-5-5-5-5-5-6-8-6-5-5-5-5-5-5-8-6-6-5-5-5-5-5-5-5-6-6-6-8-8-8-8-|
D-5-5-5-5-5-5-6-8-6-5-5-5-5-5-5-8-6-6-5-5-5-5-5-5-5-6-6-6-8-8-8-8-|

3:00 End

Synth outro.

Thank you. If you want more tab, write to nekttann@citromail.hu  \m/

Bye
Tap to rate this tab
# A B C D E F G H I J K L M N O P Q R S T U V W X Y Z