Song name
# A B C D E F G H I J K L M N O P Q R S T U V W X Y Z

Ruoska - Sika tab

Tuning: Drop D

This riff played in the intro, and the verses. :)
E-------------------------------------------|
B-------------------------------------------|
G-------------------------------------------|
D--5-5---8-5-6-5---8-5-6-5---8-5-6-5---5555-|
A--5-5---8-5-6-5---8-5-6-5---8-5-6-5---5555-|
D--5-5---8-5-6-5---8-5-6-5---8-5-6-5---5555-|

Refrain
E------------------------------------------|
B------------------------------------------|
G------------------------------------------|
D--10------6------13------8----------------|
A--10------6------13------8----------------|
D--10------6------13------8----------------|


Thanks :)
Tap to rate this tab
# A B C D E F G H I J K L M N O P Q R S T U V W X Y Z