Song name
# A B C D E F G H I J K L M N O P Q R S T U V W X Y Z

Rurouni Kenshin - Soba Kasu tab

===============================================================================
               Sobakasu (acoustic arrangement) - Judy and Mary
-------------------------------------------------------------------------------
Tabbed by: stephanie_7368
Email:     stephanie_7368@yahoo.com

legends:
  x -> mute the string    
  m -> palm mute
  d -> down stroke strumming
  u -> up stroke strumming
  h -> hammer-on

I made a simple acoustic arrangement. But honestly the INTRO doesn't sound so
good. 0_o Anyway, you can simply use the chords for casual guitar playing.
The lyrics are in Romaji so you can sing along too. (hurrah!) Just be sure to
close all the doors so nobody can see you singing gibberish hehe


INTRO

  e|--------------------------------------------------------------|
  B|------------------------------------------------------------5-|
  G|-0-2-3--0-2--3-0--2-3--2-0--5---0--2-3--0-2--3-0--2-3--2-0--7-|
  D|-0-2-3--0-2--3-0--2-3--2-0--4---0--2-3--0-2--3-0--2-3--2-0--6-|
  A|----------------------------5-------------------------------7-|
  E|--------------------------------------------------------------|

  e|------------------------------------------------------|
  B|----------------------------6---5--4--3--2--1---------|
  G|-0-2-3--0-2--3-0--2-3--2-0--8---7--6--5--4--3-(pause)-|
  D|-0-2-3--0-2--3-0--2-3--2-0--7---6--5--4--3--2---------|
  A|----------------------------8---7--6--5--4--3---------|
  E|------------------------------------------------------|


VERSE I
  A             C#m                D
    daikirai datta sobakasu wo chotto
                  F                C#m
  hitonadeshite tame iki wo hitotsu
                 F#m              D
  hebi ikkyuu no koi wa migoto ni
                E
  kakuzatou to isshoni toketa
  A                C#m                   D
    mae yori mo motto yaseta mune ni chotto
                   F            C#m
  chiku tto sasaru toge ga itai
        F#m      D        E       A
  hoshiuranai mo  ate ni naranai wa


REFRAIN I
  C#m                  D
      motto touku made
  C#m                  D  F#m
      isshoni yuketara   nee
  Bm       C#m
     ureshikute
  D        022200-E
    sore dakede


CHORUS I
     A              C#m     F#m
  omoi de wa itsumo kirei dakedo
  D        C#m      Bm         E
    sore dake ja onaka ga suku wa
     A            C#m      F#m
  honto wa setsunai yoru nanoni
  D       G#         C#m              F#     D    E
    doushite kashira     ano hito no egao mo omoi dasenai no


ADLIB (same as INTRO)


VERSE II
  A        C#m      D       F
    kowashite naoshite wakatteru noni
  C#m         F#m       D      E
      sore ga atashi no   seikaku dakara
  A       C#m          D      F             C#m
    modokashii kimochi de ayafuya no mama de
           F#m  D        E        A
  soredemo ii     koi wo   shitekita


REFRAIN II
  C#m                D
      omoikiri aketa
  C#m                            D  F#m
      hidari mimi no piasu ni wa   nee
  Bm     C#m  D      022200-E7
     waraenai   episoudo


CHORUS II (Playing this is a bit tricky and I really think this is strummed.
           Strumming will also make it easier for you to keep time. Strumming
           pattern is shown on the 1st measure.)

    ud  ud  ud  ud  ud  ud  ud  ud
     1 * * * 2 * * * 3 * * * 4 * * *   1 * * * 2 * * * 3 * * * 4 * * *
  e|-----9x--7-x-5-x-9-----10--------|77--77---5-x-7-x-9-----5---------|
  B|-----m---m---m---m-----m---------|mm--mm---m---m---m-----m---------|
  G|-9----x--7-x-6-x-9-----11--------|77--77---6-x-7-x-9-----6---------|
  D|---------------------------------|---------------------------------|
  A|---------------------------------|---------------------------------|
  E|---------------------------------|---------------------------------|
 sobaka- su no       ka-   zu    wo    ka- zo- e-  te- miru

     1 * * * 2 * * * 3 * * * 4 * * *   1 * * * 2 * * * 3 * * * 4 * * *
  e|22--22---4-x-5-x-4-x---0h2-------|-2-x-4-x-5-x-7-------------------|
  B|mm--mm---m---m---m-----m---------|-m---m---m---m-------------------|
  G|22--22---4-x-4-x-4-x---2---------|-2-x-4-x-6-x-7v------------------|
  D|---------------------------------|---------------------------------|
  A|---------------------------------|---------------------------------|
  E|---------------------------------|---------------------------------|
         yo- go- re- ta- nu- i   gu-   ru- mi  da- i-  te      mu- ne-

     1 * * * 2 * * * 3 * * * 4 * * *   1 * * * 2 * * * 3 * * * 4 * * *
  e|-9--99x--7-x-5-x-9-----10----1010|-x---12x---10x---9-x---7-x---5--5|
  B|-m--mm---m---m---m-----m-----m-m-|-----m-----m-----m-----m-----m--m|
  G|-9--99x--7-x-6-x-9-----11----1111|-x---13x---11x---9-x---7-x---6--6|
  D|---------------------------------|---------------------------------|
  A|---------------------------------|---------------------------------|
  E|---------------------------------|---------------------------------|
     wo  sa- su      to-   ge    wa    ki- e-  na- i   kedo

     1 * * * 2 * * * 3 * * * 4 * * *   1 * * * 2 * * * 3 * * * 4 * * *
  e|-----9-x-------------10----------|-12--14--15--18------------------|
  B|--------10-7x--6x----m-------7v--|-m---m---m---m-----14------------|
  G|---------------------11------8v--|-13--14--16--18----15------------|
  D|---------------------------------|---------------------------------|
  A|---------------------------------|---------------------------------|
  E|---------------------------------|---------------------------------|
         ka- e-  ru-chan         mo        u-  sa- gi-chan         mo


     E            D C#m B#m E
waratte kureru no


CHORUS III
     A              C#m     F#m
  omoi de wa itsumo kirei dakedo
  D        C#m      Bm         E
    sore dake ja onaka ga suku wa
     A            C#m      F#m
  honto wa setsunai yoru nanoni
  D       G#         C#m              F#     D    E       A   Fm
    doushite kashira     ano hito no egao mo omoi dasenai no
  F#m Gm         D A#m  Bm    E     A  Fm
  omoidasenai no        oh... oh... oh
  F#m      Gm        D   A#m
  na na na na na noo...
  Bm      E    A
  doushitenano


OUTRO (same as INTRO)


(the ending seems to be random stuff 0_o)

===============================================================================
Tap to rate this tab
# A B C D E F G H I J K L M N O P Q R S T U V W X Y Z