Song name
# A B C D E F G H I J K L M N O P Q R S T U V W X Y Z

Rurouni Kenshin - Departure tab

This is my first time to submit a Tab .
So please rate and enjoy !!
-markrealnotfake-

Departure- (Rurouni Kenshin)
Intro:

E -----5---7---8---10---8---7---5----|
B ---------------------------------5-|
G -----------------------------------|
D -----------------------------------|
A -----------------------------------|
E -----------------------------------|

E -----5---7---8---10---8---10---12---8----|
B -----------------------------------------|
G -----------------------------------------|
D -----------------------------------------|
A -----------------------------------------|
E -----------------------------------------|

E -----5---7---8---10---8---10---12---8---12---10----|
B ---------------------------------------------------|
G ---------------------------------------------------|
D ---------------------------------------------------|
A ---------------------------------------------------|
E ---------------------------------------------------|

E -----8---10---8---7---5---3----5~---|
B ------------------------------------|
G ------------------------------------|
D ------------------------------------|
A ------------------------------------|
E ------------------------------------|
Tap to rate this tab
# A B C D E F G H I J K L M N O P Q R S T U V W X Y Z