Song name
# A B C D E F G H I J K L M N O P Q R S T U V W X Y Z

Rurouni Kenshin - Departure tab

-------------------------------------------------------------------------------
                            Departure - Rurouni Kenshin
-------------------------------------------------------------------------------

Tabbed by: guitarist69r
Email: guitarist69r@hotmail.com
Date: 17th, May 2012

Standard E tuning: EADGBe

Guitar Tuner: http://adf.ly/1692170/get-tuned.com/online_guitar_tuner.php

Song: http://adf.ly/1692170/youtube.com/watch?v=Ivjt80oPevU

Finger Picking

(00:03 - 00:15)
Guitar 1
--/5---7--8--8/10--8h10p8-7--/5------------5---7--8--8/10--8--10--10/12--8~--|
---------------------------------5-------------------------------------------|
-----------------------------------------------------------------------------|
-----------------------------------------------------------------------------|
-----------------------------------------------------------------------------|
-----------------------------------------------------------------------------|

Guitar 2
---5-----------5--------------5----5*------5-----------5-3-5----------5------|
---5-----------3--------------5-----5*-----5-----------3---3----------5------|
---2-----------0--------------5------5*----2-----------0---0----------5------|
------------------------------3-------7*------------------------------3------|
-----------------------------------------------------------------------------|
-----------------------------------------------------------------------------|


(00:15 - 00:30)
Guitar 1
--/5---7--8--8/10--8--10--10/12--8--10/12--10~---8--8/10--8h10p8-7--5--3-3/5~----5--|
--------------------------------------------------------------------------------5---|
------------------------------------------------------------------------------------|
------------------------------------------------------------------------------------|
------------------------------------------------------------------------------------|
------------------------------------------------------------------------------------|
Guitar 2
---5-----------5-------------5---------7--3------5---------------5---------5-----5--|
-5-5-----------3-------------5-----5---3---3-----5---------------3---------5----5---|
---2-----------0-------------5---------0----4----5---------------0---------2--2-----|
-----------------------------3-------------------3--------------------------2-------|
------------------------------------------------------------------------------------|
------------------------------------------------------------------------------------|


(00:30 - 00:43)
Guitar 1
---5---7--8--8/10~-8--7--5-----5--------5---7--8--8/10--8--10--10/12~-----------|
----------------------------5---------------------------------------------------|
--------------------------------------------------------------------------------|
--------------------------------------------------------------------------------|
--------------------------------------------------------------------------------|
--------------------------------------------------------------------------------|
Guitar 2
--------------------------------------------------------------------------------|
--------------------------------------------------------------------------------|
---------5-----------4---------0-2------------5-----------4-------------0-2-----|
-------7-----------5---------3--------------7-----------5-------------3---------|
-----7-----------5---------3--------------7-----------5-------------3-----------|
---5-----------3---------1--------------5-----------3-------------1-------------|


(00:43 - 00:57)
Guitar 1
--/5---7--8--8/10~--8-10-12~--8--10/12-10~-----8--8/10--8h10p8--7--5h7p5--3--3/5----------|
-----------------------------------------------------------------------------------5------|
--------------------------------------------------------------------------------------2---|
------------------------------------------------------------------------------------------|
------------------------------------------------------------------------------------------|
------------------------------------------------------------------------------------------|
Guitar 2
------------------------------------------------------------------------------------------|
------------------------------------------------------------------------------------------|
---------5-----------4---------2-------4-------2----------------4--------------5----------|
-------7-----------5---------3-------------5---3----------------5--------------7----------|
-----7-----------5---------3-------------5-----3----------------5--------------7---7------|
---5-----------3---------1-------------3-------1----------------3--------------5------5~~-|


(00:57 - 01:11)
Guitar 1
---5--7--8--10--8--7--5-----5----------5--7--8--10--8--10--12-----------------|
---5--------8---------5--5-------------5--------8--------------13-------------|
---2--------7---------5----------------2--------7----------10-----------------|
----------------------3------------------------------------10-----------------|
------------------------------------------------------------------------------|
------------------------------------------------------------------------------|
Guitar 2
------------------------------0------------------------------------0----------|
---------5--------3---------------1----------5--------3----------------1------|
---------5--------4---------0---2---2--------5--------4----------0---2---2----|
-------7--------5---------3---3------------7--------5----------3---3----------|
-----7--------5---------3----------------7--------5----------3----------------|
---5--------3---------1----------------5--------3----------1------------------|


(01:11 - 01:24)
Guitar 1
---5--7--8--10--8--10--12------12--10--------8--10--8--7--5--3--5-------------------|
---5--------8--------------13------8-------------------8--------5-------------------|
---2--------7----------10----------7---------10--------7--------2-------------------|
-----------------------10--------------------10-------------------------------------|
------------------------------------------------------------------------------------|
------------------------------------------------------------------------------------|
Guitar 2
-----------------------------1-----------3---1-----1---3-----3----------5-----------|
-------5----------3--------1-----------3---------1---------3--------------5---------|
-------5----------4------2-----------4---------2---------4------------5-----5-------|
---------7------5------3-----------5---------3---------5------------7---------7-----|
-----7--------5---------------------------------------------------7-----------------|
---5--------3----------1-----------3---------1---------3--------5-------------------|


(01:24 - 01:39)
Guitar 1
---5--7--8--10--8--7--5-----5----------5--7--8--10--8--10--12-----------------|
---5--------8---------5--5-------------5--------8--------------13~------------|
---2--------7---------5----------------2--------7----------10-----------------|
----------------------3------------------------------------10-----------------|
------------------------------------------------------------------------------|
------------------------------------------------------------------------------|
Guitar 2
------------------------------0------------------------------------0----------|
---------5--------3---------------1----------5--------3----------------1------|
---------5--------4---------0---2---2--------5--------4----------0---2---2----|
-------7--------5---------3---3------------7--------5----------3---3----------|
-----7--------5---------3----------------7--------5----------3----------------|
---5--------3---------1----------------5--------3----------1------------------|


(01:39 - 01:55)
Guitar 1
---5--7--8--10--8--10--12------12--10--------8--10--8--7--5--3--5-------------------|
---5--------8--------------13------8-------------------8--------5-------------------|
---2--------7----------10----------7---------10--------7--------2-------------------|
-----------------------10--------------------10-------------------------------------|
------------------------------------------------------------------------------------|
------------------------------------------------------------------------------------|
Guitar 2
-----------------------------1-----------3---------------------------------|
-------5----------3--------1-----------3---------------------3-------------|
-------5----------4------2-----------4-----------4-----------4-------------|
---------7------5------3-----------5---------3-----3-------5----7--7--7----|
-----7--------5--------------------------------3---------5------7-----7----|
---5--------3----------1-----------3---------1---------3--------5-----5----|


End


************************************

| /   slide up
| \   slide down
| h   hammer-on
| p   pull-off
| ~   vibrato
| +   harmonic
| *   pinch harmonic
| x   Mute note
| b   Bend
| pb  Pre-bend
| br  Bend release
| pbr Pre-bend release
| brb Bend release bend

************************************
Tap to rate this tab
 
# A B C D E F G H I J K L M N O P Q R S T U V W X Y Z