Song name
# A B C D E F G H I J K L M N O P Q R S T U V W X Y Z

Rurouni Kenshin - Departure tab

tabs based on http://www.youtube.com/watch?v=n6q3BU5MoGA

intro

     Am 5 fret         G 3 fret          F
e:-------5-------|-------3-------|----------1---1--|
B:-5--------5----|-3---------3---|-1-----1------1--|
G:----5----------|----4----------|----2---------2--|
D:-------7-------|-------5-------|--------------3--|
A:-7-------------|-5-------------|-3------------3--|
E:---------------|---------------|--------------3--|

     Am 5 fr       G 3 fret               F
e-------5-------|-------3-------|----------1---1--|
B-5--------5----|-3---------3---|-1-----1------1--|
G----5----------|----4----------|----2---------2--|
D-------7-------|-------5-------|--------------3--|
A-7-------------|-5-------------|-3------------3--|
E---------------|---------------|--------------3--|


     Am 5 fr       G 3 fret               F        G 3 fret       F
e-------5-------|-------3-------|----------1----|-------3-----|------------|
B-5--------5----|-3---------3---|-1-----1-------|-3---------3-|-1------1---|
G----5----------|----4----------|----2----------|----4--------|----2-------|
D-------7-------|-------5-------|---------------|-------5-----|------3-----|
A-7-------------|-5-------------|-3-------------|-5-----------|--3---------|
E---------------|---------------|---------------|-------------|------------|


                    Am 1 fret
e---------------|---------------0--|
B--0---------0--|--------1------1--|
G-----0---------|-2---------2---2--|
D--------0------|-----0---------2--|
A---------------|-0------0------0--|
E--3------------|------------------|


chorus:

         Am 1           G               F
 e:--------------|--------------|---------------1-----------|
 B:-------0--1---|-3------1--0--|---------1-----1--1--------|
 G:-2------------|----0---------|--2---------2--2-----2-----|
 D:----2---------|--------------|-----3---------3--------3--|
 A:-0--------0---|--------------|---------------3-----------|
 E:--------------|-3------------|--1------------------------|


    Am 1           G               Fmaj7
e|--------------|-x-------------|-0----------0-----------|
B|-------0--1---|-3------1--0---|-1-----1-------1----1---|
G|-2------------|-0---0---------|-2--------2------2------|
D|----2---------|-0-------------|-3--3-------------------|
A|-0--------0---|-2-------------|-0----------------------|
E|--------------|-3-------------|-0----------------------|


   Am 1           G               Fmaj7          G              F
e:-0----------|-x-----------|-0----------0-|-x-----------|-1----------|
B:-1-----0--1-|-3------1--0-|-1------------|-3------3--0-|-1--1h3-1---|
G:-2----------|-0---0-------|-2-----2------|-0---0-------|-2----------|
D:-2--2-------|-0-----------|-3--3---------|-0-----------|-3----------|
A:-0--------0-|-2-----------|-0------------|-2-----------|-3----------|
E:------------|-3-----------|-0------------|-3-----------|-3----------|


       G            Am
e|-x-----------|-0------------|
B|-0---2-0-2---|-1-----0--1---|
G|-0-----------|-2------------|
D|-0-----------|-2--2---------|
A|-2-----------|-0--------0---|
E|-3-----------|--------------|
Tap to rate this tab
# A B C D E F G H I J K L M N O P Q R S T U V W X Y Z