Song name
# A B C D E F G H I J K L M N O P Q R S T U V W X Y Z

Rush Of Fools - Lose It All tab

Since there were no tabs to this song i just had to do it. This is a coolio song 
so it had to be done

Artist: Rush Of Fools
Song: Lose It All
Album: Wonder Of The World
Tabbed by: JMANHOO (AKA THE BEAST!!!)
email: jmanguitarman@gmail.com

HOPE YOU ENJOY IT!

Intro: 2x (Strum It)
e|---------------------------------|
B|---------------------------------|
G|--6-6-6---101010-----------------|
D|--6-6-6---101010---4-4-4---6-6-6-|
A|--4-4-4---8-8-8----4-4-4---6-6-6-|
E|-------------------2-2-2---4-4-4-|

Verses 1&2: 2x
e|--------------------------|
B|--------------------------|
G|--6-----------------------|
D|--6-(8x)-8---------4------|
A|--4------8-(4x)----4-(4x)-|
E|---------6---------2------|
    *      *         *         (* means palm mute it)

Pre Chorus:
e|----------------------------------------|
B|----------------------------------------|
G|--6--------------------8----------------|
D|--6-(8x)-8------4------8-(8x)--4--------|
A|--4------8-(4x)-4-(4x)-6-------4-(5x)---|
E|---------6------2--------------2--------|
    *      *      *      *       *

Chorus:
e|--------------------------|----------------------------------|
B|--------------------------|----------------------------------|
G|--------------6-----------|--8---------6---------------------|
D|--8-----4-----6(4x)6------|--8(4x)4----6(4x)6----8----4------|
A|--8(4x-)4(4x-)4----6(4x)--|--6----4(4x)4----6(4x)8(8x)4(8x)--|
E|--6-----2----------4------|-------2---------4----6----2------|
     THIS PART TWICE THEN.......THIS THE THIRD TIME

Intro (again)
Verse 2 (same as verse1)
Pre Chorus & Chorus again

Bridge:
e|-----------------------|------------------------|
B|-----------------------|------------------------|
G|--8---------6----------|--8---------6-----------|
D|--8(4x)8----6(4x)6-----|--8(4x)8----6(8x)6------|
A|--6----8(4x)4----6(4x)-|--6----8(4x)4----6(8x)--|
E|-------6---------4-----|-------6---------4------|
    *    *    *    *        *    *    *    *
   REPEAT FIVE TIMES.......THEN FINISH THE BRIDGE WITH THIS

Back To Chorus
End with Intro

ORDER!!!
Intro: 2x
Verse 1
Pre Chorus
Chorus
Intro: 2x
Verse 2
Pre Chorus
Chorus
Bridge
Chorus: 2x
Intro: (Ending)

...dats bout it. just email me if you need to ask anything
Tap to rate this tab
# A B C D E F G H I J K L M N O P Q R S T U V W X Y Z