Song name
# A B C D E F G H I J K L M N O P Q R S T U V W X Y Z

Rush Of Fools - When Our Hearts Sing tab

Help us improve GuitareTab! Take a short survey!
When Our Hearts Sing  Rush Of Fools
Intro (relative to capo 3)

--3-3-----5-5---------|
---3-3-----3-3--------|
----------------------|
----------------------|
----------------------|
----------------------|

--3-3-----7-7---------|                         yea thats all i got right now
---3-3-----3-3--------|                         but ill add more later.
----------------------|
----------------------|                         Praise The Lord!
----------------------|
----------------------|

--3-3-----5-5-----3---|
---3-3-----3-3--------|
----------------------|
----------------------|
----------------------|
----------------------|
Related for When Our Hearts Sing tab