Guitaretab - guitar tabs
Song name
# A B C D E F G H I J K L M N O P Q R S T U V W X Y Z

Rush - Best I Can tab

----------------------------------------------------------------------------
                            BEST I CAN - Rush
----------------------------------------------------------------------------
[ Tab from: http://www.guitaretab.com/r/rush/135617.html ]
Kenneth Dale Harris IV
kenny@kdharris.net
Standard Tuning
Main Riff.......................|Chorus.............|1st fill  |2nd fill
  A D A  G C G   D D            |       A A G G D D |after chrs|after chrs
e--------------|----------------|-----------3-3-2-2-|-/-14-14\-|-3-2-0-2-|
B--------------|----------------|-------2-2-3-3-3-3-|-/-15-15\-|-3-3-3-3-|
G--------------|-7-7------------|-------2-2-0-0-2-2-|-/-14-14\-|-2-2-2-2-|
D---7------5---|-7-7------------|-------2-2-0-0-0-0-|----------|-0-0-0-0-|
A-7-5-7--5-3-5-|-5-5-8-7-6-5~~~-|-------0-0-2-2-----|----------|---------|
E-5---5--3---3-|----------------|-7-6-5-----3-3-----|----------|---------|
Right before the solo!
e------------------------|
B------------------------|
G------------------------|
D-[7-7---7--]-9-9-9-9\]--|
A-[5-5-7-5-2]-7-7-7-7\]--|
E-----[5---0]------------|

e----------------------------| Thats the beginning to Alex's solo. The rest 
B----10-10-------------------|is just Alex Jammin' in "B" (penatonic). He
G-7^9-----9^7-7~---7h9p7-7~7~|played this type of solo alot in Rush's 
D---------------7h9-----9----|first few records.  Its a good place where
A----------------------------|you can place your identity, and create your 
E----------------------------|own solo. 


^ - bend
[]- palm mute everything inside
/ - slide up
\ - slide down
~ - vibrato
Related for Best I Can tab