Song name
# A B C D E F G H I J K L M N O P Q R S T U V W X Y Z

Rush - Entre Nous tab

----------------------------------------------------------------------------
                            "ENTRE NOUS" - Rush
----------------------------------------------------------------------------

Kenneth Dale Harris IV
kenny@kdharris.net
Standard Tuning
Introduction
e-------------------|-------------------|
B-2--4--5--4--4-2---|-2--4--5--4--4-2---|
G--2--2--2--2----2--|--2--2--2--2----2--|
D---2--2--2--2----2-|---2--2--2--2----2-|
A-------------------|-------------------|
E-------------------|-------------------|

e-------------------|-------------------|
B-4--5--7--5--5-4---|-4--5--7--5--5-4---|
G--4--4--4--4----4--|--4--4--4--4----4--|
D---4--4--4--4----4-|---4--4--4--4----4-|
A-------------------|-------------------|
E-------------------|-------------------|2x
Tap to rate this tab
# A B C D E F G H I J K L M N O P Q R S T U V W X Y Z