Song name
# A B C D E F G H I J K L M N O P Q R S T U V W X Y Z

Rush - Fly By Night tab

Help us improve GuitareTab! Take a short survey!
I know most of it but it's half of tho solo


e-----------------------------------------------------------------------10-12-|
b--------------------------------------------------------10--10-12-10-12------|
g-----7-9b-9b-9b-7-7-7-5-4-2-4-2-0-----------7-9-9b-9b-9b--9b-----11----------|
d----7-9--------9-----7------------4-2-0--7-9---------------------------------|
a-----------------------------------------------------------------------------|
e-----------------------------------------------------------------------------|

e-12b-11-12------------------------------------------------------------------|
b----------12-10-12----------------------------------------------------------|
g------------------11-9-7----------------------------------------------------|
d----------------------------------------------------------------------------|
a----------------------------------------------------------------------------|
e----------------------------------------------------------------------------|
Related for Fly By Night tab