Song name
# A B C D E F G H I J K L M N O P Q R S T U V W X Y Z

Rush - Natural Science tab

----------------------------------------------------------------------------
			     Natural Science - Rush
----------------------------------------------------------------------------
Tabbed by:doodoo62
Email:doodoo62@hotmail.co.uk

Tuning:standard

I actuaqlly managed to tab the solo for Rush and im only 13! this is the greatest
acheivment of my life. This is probaly 50%percent rite but it still sounds okay.
Its bast on 2 live versions, different stages and rush in rio. Just make your own
version of this one.

e|-----------------------------------------------------------|
B|-------------17----------15-------13----------12-----------|
G|-12s14-14-14----14s12-12----12-----------------------------|
D|-------------------------------15----15s14-14---14---------|
A|-----------------------------------------------------------|
E|-----------------------------------------------------------|

e|-----------------------------------------------------------------------|
B|-------5h8p5----5h8p5----5h8p5----5h8-8~~~~----------------------------|
G|--------------7--------7--------7---------------------------7-9b10r9---|
D|-5s7-7-------------------------------------------------7-9-------------|
A|-------------------------------------------------5s7h9-----------------|
E|---------------------------------------------5h7-----------------------|
           Pick very fast varying from
           18 20 21 then stop on 21 then
           do that again
e|------|--------------------------------|-------------------------|
B|------|--------------------------------|-----16-16---------------|
G|-7----|---18-20-21-20-21 Read above ---|--18b20r18-18p16---------|
D|---9~~|--------------------------------|-----------------18------|
A|------|--------------------------------|-------------------------|
E|------|--------------------------------|-------------------------|

e|-----------------------------------------------|--------------------|
B|-----------------------19b21-21-21r19-17-17-17-|--17-13-15-12-13-15-|
G|-18--21--18-18--21--18-------------------------|--------------------|
D|-----------------------------------------------|-do this for a bit--|
A|-----------------------------------------------|--------------------|
E|-----------------------------------------------|--------------------|

I guess thats kinda what he does but this is very much tabbed to my way
of playing guitar and alex does quite alot of harmonics but i dont know
what thya are so youll have to work it out.Anywho Thanks for readin me
tab.
Tap to rate this tab
# A B C D E F G H I J K L M N O P Q R S T U V W X Y Z