Song name
# A B C D E F G H I J K L M N O P Q R S T U V W X Y Z

Rush - Spirit Of Radio tab

-------------------------------------------------------------------------------
			     SPIRIT OF RADIO - Rush
-------------------------------------------------------------------------------
Tabbed by: Keith Boilek
Email:nboilek@netzero.net

Tuning:E A D G B e

Intro w/ light distortion
e|-2p0-----5p0-----2p0-----4p0-----|
B|-----3p0-----3p0-----3p0-----3p0-|
G|---------------------------------| Repeat a couple of times
D|---------------------------------|
A|---------------------------------|
E|---------------------------------|

e|-------------------------|
B|-4-2---------------------|
G|-----4-3-2---------------|Not to sure on this part
D|-----------4-2-----------|
A|---------------5-4-5-4---|
E|-------------------------|

e|---------------------------|
B|---------------------------|
G|---------------------------|Repeat 3 times
D|----------2--------2-------|
A|-2--------0-2-3h4----------|
E|-0-2-3-4-------------------|

e|-------------------------------------------------------|
B|-------------------------------------------------------|
G|-9-----------------------------------------------------|
D|-9--9--9/6--6--6--6--6--6--6--6--7--7--7--7--7--7--7--9|
A|-7--9--9/6--6--6--6--6--6--6--6--7--7--7--7--7--7--7--9|
E|----7--7/4--4--4--4--4--4--4--4--5--5--5--5--5--5--5--7|

e|------0----------------0----------------0---------------|
B|--------0----------------0----------------0-------------|
G|-9--9------9--9-----------------------------------6-----|
D|-9--9------9--0--9--9-------9/6--6--6-------6--7--6--9--|
A|-7---------7--0--9--9-------9/6--6--6-------6--7--4--9--|
E|--------------0--7----------7/4--4--4-------4--5-----7--|

e|------0----------------0----------------0------------------------|
B|--------0----------------0----------------0----------------------|
G|-9--9------9--9--------------------------------------------------|
D|-9--9------9--0--9--9-------9/6--6--6-------6--7--7--7--7--7--9--|
A|-7---------7--0--9--9-------9/6--6--6-------6--7--7--7--7--7--9--|
E|--------------0--7----------7/4--4--4-------4--5--5--5--5--5--7--|

e|------0----------------0----------------0---------------|
B|--------0----------------0----------------0-------------|
G|-9--9------9--9-----------------------------------6-----|
D|-9--9------9--0--9--9-------9/6--6--6-------6--7--6--9--|
A|-7---------7--0--9--9-------9/6--6--6-------6--7--4--9--|
E|--------------0--7----------7/4--4--4-------4--5-----7--|

e|------0----------------0----------------0------------------------|
B|--------0----------------0----------------0----------------------|
G|-9--9------9--9--------------------------------------------------|
D|-9--9------9--0--9--9-------9/6--6--6-------6--7--7--7--7--7--9--|
A|-7---------7--0--9--9-------9/6--6--6-------6--7--7--7--7--7--9--|
E|--------------0--7----------7/4--4--4-------4--5--5--5--5--5--7--|

e|------4-0---------------8--------------4-0-----------------------|
B|------------------------8----------------------------------------|
G|-9--9------9--9--------------------------------------------------|Repeat
D|-9--9------9--0--9--9-------9/6--6--6-------6--7--7--7--7--7--9--|
A|-7---------7--0--9--9-------9/6--6--6-------6--7--7--7--7--7--9--|
E|--------------0--7----------7/4--4--4-------4--5--5--5--5--5--7--|
      
e|----|--2p0-----5p0-----2p0-----4p0------|  
B|----|------3p0-----3p0-----3p0-----3p0--|
G|-9--|-----------------------------------|Repeat a couple of times
D|-9--|-----------------------------------|
A|-7--|-----------------------------------|
E|----|-----------------------------------|

e|---------------------------------------------------------|
B|---------------------------------------------------------|
G|-9--------------------9-------------------------------9--|
D|-9--9--6--7-7-7-7--9--9--9--6--7-7-7-7-9-9-9-9-9-9-9--9--|
A|-7--9--6--7-7-7-7--9--7--9--6--7-7-7-7-9-9-9-9-9-9-9--7--|
E|----7--4--5-5-5-5--7-----7--4--5-7-7-7-7-7-7-7-7-7-7-----|

e|-2p0-----5p0-----2p0-----4p0-----|
B|-----3p0-----3p0-----3p0-----3p0-|
G|---------------------------------| Repeat a couple of times
D|---------------------------------|
A|---------------------------------|
E|---------------------------------|

e|-------------------------|
B|-4-2---------------------|
G|-----4-3-2---------------|Not to sure on this part
D|-----------4-2-----------|
A|---------------5-4-5-4---|
E|-------------------------|

e|---------------------------|
B|---------------------------|
G|---------------------------|Repeat 4 times
D|----------2--------2-------|
A|-2--------0-2-3h4----------|
E|-0-2-3-4-------------------|

e|-4--4--5--7--4--4-4--5--7--|
B|-5--5--5--5--5--5-5--5--5--|
G|---------------------------|
D|---------------------------|
A|---------------------------|
E|---------------------------|

e|---------------------------|
B|---------------------------|
G|---------------------------|Repeat 4 times
D|----------2--------2-------|
A|-2--------0-2-3h4----------|
E|-0-2-3-4-------------------|

e|-4--4--5--7--4--4--5--7--|
B|-5--5--5--5--5--5--5--5--|
G|-------------------------|
D|-------------------------|
A|-------------------------|
E|-------------------------|

e|---------------------------|
B|---------------------------|
G|---------------------------|Repeat 2 times
D|----------2--------2-------|
A|-2--------0-2-3h4----------|
E|-0-2-3-4-------------------|

The solo comes after that, but I don't know what it is. So it's up to you on how it goes.

e|---------------------------|
B|---------------------------|
G|---------------------------|Repeat 2 times
D|----------2--------2-------|
A|-2--------0-2-3h4----------|
E|-0-2-3-4-------------------|

e|-----------------------------|
B|-----------------------------|
G|-----------------------------|Repeat 2 times
D|-----------2--------------2--|
A|-2-2-------0--2-2---------0--|
E|-0-0-2-3h4----0-0---2-3h4----|

e|-2p0-----5p0-----2p0-----4p0-----|
B|-----3p0-----3p0-----3p0-----3p0-|
G|---------------------------------| Repeat 2 of times
D|---------------------------------|
A|---------------------------------|
E|---------------------------------|

e|----|---|
B|----|---|
G|-1--|-9-|Repeat a couple of times
D|-2--|-9-|
A|-2--|-7-|
E|----|---|


| /  slide up
| \  slide down
| h  hammer-on
| p  pull-off
| ~  vibrato
| +  harmonic
| x  Mute note
===============================================================================
Tap to rate this tab
 
# A B C D E F G H I J K L M N O P Q R S T U V W X Y Z